Ads

The Magic House (Final Fantasy VI) Guitar Tab

Submitted: Feb 09, 2013 by The Ripper

5
Average: 5 (5 votes)
Download | Listen
Game: Final Fantasy VI
Composer(s): Nobuo Uematsu
Style: Arrangement, Fingerstyle
Series: Final Fantasy

AutoScroll: Slow | Medium | Fast
                                              Magic House
                                           Final Fantasy VI 
                                       Composed  by Nobuo Uematsu
                                Tabbed by the Ripper  February 8th 2013


     Q    E  E  Q    E  E     E  E  E  E  E  E  E  E     Q    E  E  Q    E  E   
E||------------------------|--------------------------|------------------------|
B||------------------------|--------------------------|------------------------|
G||------------------------|--------------------------|------------------------|
D||--2---------------------|-----0--------------------|--2---------------------|
A||----------3----------0--|--2-----3--2-----0--0--0--|----------3----------0--|
E||-------------4----------|--------------4-----------|-------------4----------|


   E  E  Q    Q    E  E     Q    E  E  Q    E  E     E  E  E  E  E  E  E  E   
|------------------------|--0---------------------|--------------------------|
|------------------------|----------1-------------|--0--3--1--0--------------|
|------------------------|-------------1-------2--|--------------1--2--2--2--|
|------------------------|--2---------------------|-----0--------------------|
|--------3----0-------0--|----------3----------0--|--2-----3--2-----0--0--0--|
|--1--0------------------|-------------4----------|--------------4-----------|


   Q    E  E  Q    E  E     E  E  Q    Q    E  E     E  E  E  E  E  E  E  E   
|--0---------------------|--1--0------------------|-----------------------1--|
|----------1-------------|--------1---------------|--------1--0--------0-----|
|-------------1-------2--|-------------2----------|-----2--------2--1--------|
|--2---------------------|---------------------1--|--2--------------------0--|
|----------3----------0--|--------3----0----------|--0--L-----2--3--L--------|
|-------------4----------|--1--0------------------|--------------------------|


   E  E  E  E  Q.     E     E  E  E  E  E  E  E  E     E  E  E  E  E  E  E  E   
|--0------------------0--|--------5--0--0-----------|--0-----7-----------------|
|-----3-----0--1---------|--6--5--------------------|--------------------------|
|--------5--1--2---------|-----------------7-----7--|-----7-----7--7--5--------|
|--2--3--4-----2---------|--0--L--------------------|-----------------------1--|
|------------------------|--------0--L--7--L--------|--7--L--------0--L--------|
|------------------------|--------------------------|--------4--L--------------|


   E  E  E  E  E  E  E  E     E  E  E  E  Q.     E     E  E  E  E  E  E  E  E   
|-----------------------1--|--0------------------0--|--------5--0--0-----------|
|--------1--0--------0-----|-----3-----0--1---------|--6--5--------------------|
|-----2--------2--1--------|--------5--1--2---------|-----------------7-----7--|
|--2--------------------0--|--2--3--4-----2---------|--0--L--------------------|
|--0--L-----2--3--L--------|------------------------|--------0--L--7--L--------|
|--------------------------|------------------------|--------------------------|

                                         *Feel free to omit That A-string E
   E  E  E  E  E  E  E  S S    S  S S  S  S  S S  S S  S S S S S S S  
|--0-----7--------------5-7-|--8-10-7-10----10---10-5----0---1-------|
|---------------------------|------------10----9-----------1-----3---|
|-----7-----7--7--5---------|--------------------------5-------2---2-|
|---------------------------|--0-------L------------7--L---------0-L-|
|--7--L--------0--L---------|-------------7-------L------0-L-2-L-----|
|--------4--L---------------|----------------------------------------|


   Q    E  S S Q    E  E       E  E  E  E  E  E  E  E     E  E  E  E  Q.     E   
|-------------------------||------------------------1--|--0------------------0--|
|--1----0----0------------||---------1--0--------0-----|-----3-----0--1---------|
|----------2---2----------||*-----2--------2--1--------|--------5--1--2---------|
|--2-------------------1--||*--2--------------------0--|--2--3--4-----2---------|
|--------------0----------||---0--L-----2--3--L--------|------------------------|
|-------4-----------------||---------------------------|------------------------|


   E  E  E  E  E  E  E  E     E  E  E  E  E  E  E  E   
|--------5--0--0-----------|--0-----7-----------------|
|--6--5--------------------|--------------------------|
|-----------------7-----7--|-----7-----7--7--5--------|
|--0--L--------------------|-----------------------1--|
|--------0--L--7--L--------|--7--L--------0--L--------|
|--------------------------|--------4--L--------------|


   E  E  E  E  E  E  E  E     E  E  E  E  Q.     E     E  E  E  E  E  E  E  E   
|-----------------------1--|--0------------------0--|--------5--0--0-----------|
|--------1--0--------0-----|-----3-----0--1---------|--6--5--------------------|
|-----2--------2--1--------|--------5--1--2---------|-----------------7-----7--|
|--2--------------------0--|--2--3--4-----2---------|--0--L--------------------|
|--0--L-----2--3--L--------|------------------------|--------0--L--7--L--------|
|--------------------------|------------------------|--------------------------|


   E  E  E  E  E  E  E  S S    S  S S  S  S  S S  S S  S S S S S S S  
|--0-----7--------------5-7-|--8-10-7-10----10---10-5----0---1-------|
|---------------------------|------------10----9-----------1-----3---|
|-----7-----7--7--5---------|--------------------------5-------2---2-|
|---------------------------|--0-------L------------7--L---------0-L-|
|--7--L--------0--L---------|-------------7-------L------0-L-2-L-----|
|--------4--L---------------|----------------------------------------|


   Q    E  S S Q    E  E     E  S S E  E  E  S S E  E   
|-------------------------|----------------------------|
|--1----0----0------------|-------0-1-----L--0-1-3--L--|
|----------2---2----------|-----2----------------------|
|--2----------------------|--2----L--------------------|
|--------------0-------0--|------------3------------0--|
|-------4-----------------|---------------4----L-------|


   E  S S E  E  E  E  E  E     E  S S E  E  E  S S E  S S  
|---------0-----0-----------|-----------------------------|
|-----0-3----0-----3--1--L--|-------0-1-----L--0-1-3--1-3-|
|---------------------------|-----2-----------------------|
|-----0-L-------------------|--2----L---------------------|
|--2------3--2-----0--0--0--|------------3----------------|
|---------------4-----------|---------------4----L----4-L-|


   S S S S S S S S S S S S E  E     E  S S E  E  E  S S E  E   
|--0---0-1-0---------0---0-------|----------------------------|
|----4-------3-1-0-1---0---------|-------0-1-----L--0-1-3--L--|
|--------------------------2--L--|-----2----------------------|
|--------------------------------|--2----L--------------------|
|----------3-----L-0-----L----0--|------------3------------0--|
|--1-L-0-L-----------------------|---------------4----L-------|


   E  S S E  E  E  E  E  E     E  S S E  E  E  S S E  S S  
|---------0-----0-----------|-----------------------------|
|-----0-3----0-----3--1--L--|-------0-1-----L--0-1-3--1-3-|
|---------------------------|-----2-----------------------|
|-----0-L-------------------|--2----L---------------------|
|--2------3--2-----0--0--0--|------------3----------------|
|---------------4-----------|---------------4----L----4-L-|


   S S S S S S S S S S S S E  E     
|--0---0-1-0---------0---0--------||
|----4-------3-1-0-1---0----------||
|--------------------------2-----*||
|-----------------------------1--*||
|----------3-----L-0-----L--------||
|--1-L-0-L------------------------||





                         Legend
	             ---------------
			W - whole
			H - half
			Q - quarter
			E - 8th
			S - 16th
			T - 32nd
			X - 64th
			. - note dotted
			|-n-|  - n-tuplets
			L - tied note
Login or Register to remove this ad.

2 comments on The Magic House

Awesome!

5

Awesome!

Definitely worth 5 stars,

5

Definitely worth 5 stars, although I would make changes to the sixteenth-note section; for one the first off-beat notes go to the lower octave (7 on G, not 10 on E). Which actually makes it easier to do string-crossing for all the alternating notes, which I think sounds better musically.

I'll post an amended section when I come back to this in the future. For now I have to keep sightreading your tabs. :p