The Magic House (Final Fantasy VI) Guitar Tab

Submitted: Nov 19, 2011 by BacardiBreezer

0
Download | Listen
Game: Final Fantasy VI
Composer(s): Nobuo Uematsu
Style: Alternate picking, Transcription
Series: Final Fantasy

This song is also called からくり屋敷

AutoScroll: Slow | Medium | Fast
The Magic House
Final Fantasy 6
Composer: Nobuo Uematsu
Tabbed by Bacardibreezer
11/16/11

e|--------------|---------------------------|
B|--5-----------|---------------------------|
G|-------5------|-----4--7--5h7p5---4-------|
D|----------6~--|--7--------------------6---|
A|--------------|---------------------------|
E|--------------|---------------------------|
                                      tr
e|----------------------|------------------------|
B|----------5-----------|------------------------|
G|---------------5------|------------5(7)--------|
D|--7-7--7----------6~--|--6----------------7~---|
A|----------------------|-----8--7---------------|
E|----------------------|------------------------|

e|-----------------|---------------------------|
B|-----5-----------|---------------------------|
G|----------5------|-----4--7--5h7p5---4-------|
D|--7----------6~--|--7--------------------6---|
A|-----------------|---------------------------|
E|-----------------|---------------------------|
                                      tr
e|----------------------|------------------------|
B|----------5-----------|------------------------|
G|---------------5------|------------5(7)--------|
D|--7-7--7----------6~--|--6----------------7~---|
A|----------------------|-----8--7---------------|
E|----------------------|------------------------|

e|-----------------------------------------13---12----------------------|
B|--------------13--12h13p12----------12-------------15--13---12--13~---|
G|----------14----------------14--13------------------------------------|
D|--13--14--------------------------------------------------------------|
A|----------------------------------------------------------------------|
E|----------------------------------------------------------------------|

e|------------------------17h19p17---------------------|
B|--17--18h20p18--17---------------17-----17h18p17-----|
G|-------------------------------------------------19--|
D|-----------------------------------------------------|
A|-----------------------------------------------------|
E|-----------------------------------------------------|

e|---------------------19h20p19------------------------|
B|------17h18p17---------------------------------------|
G|--19-----------19-------------19----19h21p19---17----|
D|-----------------------------------------------------|
A|-----------------------------------------------------|
E|-----------------------------------------------------|

e|-----------------------------------------13---12----------------------|
B|--------------13--12h13p12----------12-------------15--13---12--13~---|
G|----------14----------------14--13------------------------------------|
D|--13--14--------------------------------------------------------------|
A|----------------------------------------------------------------------|
E|----------------------------------------------------------------------|

e|------------------------17h19p17---------------------|
B|--17--18h20p18--17---------------17-----17h18p17-----|
G|-------------------------------------------------19--|
D|-----------------------------------------------------|
A|-----------------------------------------------------|
E|-----------------------------------------------------|

e|---------------------19h20p19------------------------|
B|------17h18p17---------------------------------------|
G|--19-----------19-------------19----19h21p19---17----|
D|-----------------------------------------------------|
A|-----------------------------------------------------|
E|-----------------------------------------------------|
                                                               tr
e|-----7--8-----7------------------------------------------|-------------------|
B|--10----------------10----9----10----5----6--------------|-------------------|
G|-----------7-----7-----7----7-----5----5--------7-----5--|--4(5)4-----4------|
D|---------------------------------------------7-----7-----|---------7-----7~--|
A|---------------------------------------------------------|-------------------|
E|---------------------------------------------------------|-------------------|

e|-----------------------------------------13---12----------------------|
B|--------------13--12h13p12----------12-------------15--13---12--13~---|
G|----------14----------------14--13------------------------------------|
D|--13--14--------------------------------------------------------------|
A|----------------------------------------------------------------------|
E|----------------------------------------------------------------------|

e|------------------------17h19p17---------------------|
B|--17--18h20p18--17---------------17-----17h18p17-----|
G|-------------------------------------------------19--|
D|-----------------------------------------------------|
A|-----------------------------------------------------|
E|-----------------------------------------------------|

e|---------------------19h20p19------------------------|
B|------17h18p17---------------------------------------|
G|--19-----------19-------------19----19h21p19---17----|
D|-----------------------------------------------------|
A|-----------------------------------------------------|
E|-----------------------------------------------------|

e|-----------------------------------------13---12----------------------|
B|--------------13--12h13p12----------12-------------15--13---12--13~---|
G|----------14----------------14--13------------------------------------|
D|--13--14--------------------------------------------------------------|
A|----------------------------------------------------------------------|
E|----------------------------------------------------------------------|

e|------------------------17h19p17---------------------|
B|--17--18h20p18--17---------------17-----17h18p17-----|
G|-------------------------------------------------19--|
D|-----------------------------------------------------|
A|-----------------------------------------------------|
E|-----------------------------------------------------|

e|---------------------19h20p19------------------------|
B|------17h18p17---------------------------------------|
G|--19-----------19-------------19----19h21p19---17----|
D|-----------------------------------------------------|
A|-----------------------------------------------------|
E|-----------------------------------------------------|
                                                               tr
e|-----7--8-----7------------------------------------------|-------------------|
B|--10----------------10----9----10----5----6--------------|-------------------|
G|-----------7-----7-----7----7-----5----5--------7-----5--|--4(5)4-----4------|
D|---------------------------------------------7-----7-----|---------7-----7~--|
A|---------------------------------------------------------|-------------------|
E|---------------------------------------------------------|-------------------|

e|-----------------|---------------------------|
B|-----5-----------|---------------------------|
G|----------5------|-----4--7--5h7p5---4-------|
D|--7----------6~--|--7--------------------6---|
A|-----------------|---------------------------|
E|-----------------|---------------------------|
                                      tr
e|----------------------|------------------------|
B|----------5-----------|------------------------|
G|---------------5------|------------5(7)--------|
D|--7-7--7----------6~--|--6----------------7~---|
A|----------------------|-----8--7---------------|
E|----------------------|------------------------|

e|------12-----8-----|------7--10--8h10p8--7------|
B|--10------------9--|--10--------------------9---|
G|-------------------|----------------------------|
D|-------------------|----------------------------|
A|-------------------|----------------------------|
E|-------------------|----------------------------|
                                            tr
e|-------------12-----8-----|-------------8(10)--------|
B|--10-10--10------------9--|--9-----------------10~---|
G|--------------------------|-----10--9----------------|
D|--------------------------|--------------------------|
A|--------------------------|--------------------------|
E|--------------------------|--------------------------|

Loop at fifth measure.
Login or Register to remove this ad.