Kids Run Through The City Corner (Final Fantasy VI) Guitar Tab

Submitted: Jun 25, 2010 by Daugreano

0
Download | Listen
Game: Final Fantasy VI
Composer(s): Nobuo Uematsu
Style: Transcription
Series: Final Fantasy

AutoScroll: Slow | Medium | Fast
Song: Kids Run Through The City Corner
Game: Final Fantasy VI
Composer: Nobuo Uematsu
Tabbed by: Daugreano


Guitar: 

   H     E   E     Q    Q    Q      H     Q   Q     Q.    E   Q      H     Q      Q    Q    Q      
E|---------------|----------------|---------------|----------------|------------|-0--------------|
B|---------------|-0---------0----|---------------|-0---------0----|-3----------|------3----1----|
G|-------0---2---|------2---------|-0-----0---2---|-------2--------|-------0----|----------------|
D|---------------|----------------|---------------|----------------|------------|----------------|
A|---------------|----------------|---------------|----------------|------------|----------------|
E|---------------|----------------|---------------|----------------|------------|----------------|

   Q.    E   E   E     H.       H     E   E     Q    Q    Q      H     Q   Q     Q.    E   Q
E|-------------------|--------|---------------|----------------|---------------|----------------|
B|-1-----0---0---1---|--------|---------------|-0---------0----|---------------|-0---------0----|
G|-------------------|-2------|-------0---2---|------2---------|-0-----0---2---|-------2--------|
D|-------------------|--------|---------------|----------------|---------------|----------------|
A|-------------------|--------|---------------|----------------|---------------|----------------|
E|-------------------|--------|---------------|----------------|---------------|----------------|

   H     Q      Q    Q    Q      H     Q      H.       H.       Q    Q    Q      H     Q   Q
E|------------|-0----2----3----|------------|--------|--------|----------------|---------------|
B|-3----------|----------------|-0----------|--------|--------|-3----1----3----|-0-----0---1---|
G|-------0----|----------------|-------2----|-2------|-0------|----------------|---------------|
D|------------|----------------|------------|--------|--------|----------------|---------------|
A|------------|----------------|------------|--------|--------|----------------|---------------|
E|------------|----------------|------------|--------|--------|----------------|---------------|

   Q.    E   Q      H     Q      Q    Q    Q      Q.    E   E   E     H.       H     E   E
E|----------------|-2----------|-3----2----0----|-0-------------0---|--------|---------------|
B|-3-----1---3----|------------|----------------|-------3---3-------|-1------|-------0---1---|
G|----------------|------------|----------------|-------------------|--------|---------------|
D|----------------|------------|----------------|-------------------|--------|---------------|
A|----------------|------------|----------------|-------------------|--------|---------------|
E|----------------|------------|----------------|-------------------|--------|---------------|

   Q    Q    Q      H     E   E     Q.    E   Q      H     Q      Q    Q    Q 
E|----------------|---------------|----------------|-1----------|----------------|
B|-3----1----3----|-0-----0---1---|-3-----1---3----|------------|------3----1----|
G|----------------|---------------|----------------|------------|----------------|
D|----------------|---------------|----------------|------------|----------------|
A|----------------|---------------|----------------|------------|----------------|
E|----------------|---------------|----------------|------------|----------------|

   H     Q      H.       H.       H.       H     Q      Q    Q    Q      Q.    E   E   E
E|------------|--------|--------|--------|------------|-3----2----3----|-0-------------0---|
B|-3-----1----|-1------|-0------|--------|------------|----------------|-------3---1-------|
G|------------|--------|--------|--------|-------0----|----------------|-------------------|
D|------------|--------|--------|--------|------------|----------------|-------------------|
A|------------|--------|--------|--------|------------|----------------|-------------------|
E|------------|--------|--------|--------|------------|----------------|-------------------|

   H.       H.       Q    Q    Q      Q.    E   E   E     H.       H.       Q    Q    Q
E|--------|--------|-3----2----3----|-0-------------0---|--------|--------|-3----2----3----|
B|-3------|-0------|----------------|-------3---1-------|-3------|--------|----------------|
G|--------|--------|----------------|-------------------|--------|--------|----------------|
D|--------|--------|----------------|-------------------|--------|--------|----------------|
A|--------|--------|----------------|-------------------|--------|--------|----------------|
E|--------|--------|----------------|-------------------|--------|--------|----------------|

   H     E   E     Q.    E   Q      H.       Q    Q    Q      H     Q      H.     
E|-0-----0---2---|-3-----2---3----|-5------|-0----2----3----|------------|--------|
B|---------------|----------------|--------|----------------|-0----------|--------|
G|---------------|----------------|--------|----------------|-------2----|-2------|
D|---------------|----------------|--------|----------------|------------|--------|
A|---------------|----------------|--------|----------------|------------|--------|
E|---------------|----------------|--------|----------------|------------|--------|

   H.       H.      H.        Q    Q    Q      H     E   E     H     E   E      H     Q
E|--------|--------|--------|----------------|---------------|----------------|-2----------|
B|--------|--------|--------|-3----1----3----|-0-----0---1---|-3-----1---3----|------------|
G|-0------|--------|--------|----------------|---------------|----------------|------------|
D|--------|--------|--------|----------------|---------------|----------------|------------|
A|--------|--------|--------|----------------|---------------|----------------|------------|
E|--------|--------|--------|----------------|---------------|----------------|------------|

   Q    Q    Q      Q.    E   E   E     H.       H     E   E     Q    Q    Q      H     E   E
E|-3----2----0----|-0-------------0---|--------|---------------|----------------|---------------|
B|----------------|-------3---3-------|-1------|-------0---1---|-3----1----3----|-0-----0---1---|
G|----------------|-------------------|--------|---------------|----------------|---------------|
D|----------------|-------------------|--------|---------------|----------------|---------------|
A|----------------|-------------------|--------|---------------|----------------|---------------|
E|----------------|-------------------|--------|---------------|----------------|---------------|

Repeat this next section once then move on...

   H     E   E      H.           Q    Q    Q      H     Q      H.       H.       H.        
E|----------------|-1----------|----------------|------------|--------|--------|--------|
B|-3-----1---3----|------------|------3----1----|-3-----1----|-1------|-0------|--------|
G|----------------|------------|----------------|------------|--------|--------|--------|
D|----------------|------------|----------------|------------|--------|--------|--------|
A|----------------|------------|----------------|------------|--------|--------|--------|
E|----------------|------------|----------------|------------|--------|--------|--------|

   H     Q      Q    Q    Q      Q.    E   E   E     H.     
E|------------|-3----2----3----|-0-------------0---|--------|
B|------------|----------------|-------3---1-------|-3------|
G|-------0----|----------------|-------------------|--------|
D|------------|----------------|-------------------|--------|
A|------------|----------------|-------------------|--------|
E|------------|----------------|-------------------|--------| 




   H.       Q    Q    Q
E|--------|-3----2----3----|
B|--------|----------------|
G|--------|----------------|
D|--------|----------------|
A|--------|----------------|
E|--------|----------------|

   H     E   E     Q.    E   Q      H.       Q    Q    Q      H     Q      H.
E|-0-----0---2---|-3-----2---3----|-5------|-0----2----3----|------------|--------|
B|---------------|----------------|--------|----------------|-0----------|--------|
G|---------------|----------------|--------|----------------|-------2----|-2------|
D|---------------|----------------|--------|----------------|------------|--------|
A|---------------|----------------|--------|----------------|------------|--------|
E|---------------|----------------|--------|----------------|------------|--------|

   H.
E|--------|
B|--------|
G|-0------|
D|--------|
A|--------|
E|--------|



Login or Register to remove this ad.