Ads

Kefka's Theme (Final Fantasy VI) Guitar Tab

Submitted: Mar 04, 2012 by The Ripper

5
Average: 5 (6 votes)
Download | Listen
Game: Final Fantasy VI
Composer(s): Nobuo Uematsu
Style: Arrangement, Fingerstyle, Trill
Series: Final Fantasy

AutoScroll: Slow | Medium | Fast
                                       Kafka's Theme
				       Final Fantasy Vi
                                 composed by Nobuo Uematsu
                           Tabbed by The Ripper With help from hslesperance
                                           Drop D

     Q    Q    Q    Q       Q    Q    Q    E  E     Q    Q    Q    Q     
E||----------------------|--0---------1----0-----|--0-------------------|
B||-------0----1----3----|-------1------------3--|-------1----0----3----|
G||--2-------------------|-----------------------|----------------------|
D||----------------------|-----------------------|----------------------|
A||----------------------|-----------------------|----------------------|
D||----------------------|-----------------------|----------------------|


  Q    Q    Q    E  E  Q    Q       Q    Q    Q    Q       Q    H.            
---------------------------------|----------------------|--------------------|
--1-----------------0------------|----------------------|--------------------|
-------2----1----2-----2---------|----------------------|--------------------|
----------------------------3----|--2----3----2----3----|--1----2------------|
---------------------------------|----------------------|--------------------|
---------------------------------|----------------------|--------------------|


  Q    Q    Q    Q       Q    Q    Q    Q       E  E  E  E  E  E  E  E   
----------------------|----------------------|--------------------------|
----------------------|----------------------|-----------0-----1-----3--|
----------------------|----------------------|-----2--------------------|
--3----2----3----2----|--1----2----3----2----|--------------------0-----|
----------------------|----------------------|--0-----2-----3-----------|
----------------------|----------------------|--------------------------|


  E  E  E  E  E  E  E  E     E  E  E  E  E  E  E  E   
-----0-----------1-----0--|-----------0--------------|
-----------1--------------|-----3-----------1-----0--|
--------------------------|--------------------------|
--2-----------3-----2-----|--0-----2-----------------|
--------3-----------------|--------------3-----2-----|
--------------------------|--------------------------|


  E  E  E  E  E  E  E  E     Q    E  E  Q    Q       Q    Q    Q    Q     
--------------------------|------------------0----|--0----0----0----0----|
-----3-----1--------------|----------0------------|----------------------|
-----------------2--------|-------2---------------|----------------------|
--0--------------------6--|------------------2----|--2----2----2----2----|
--------3-----0-----------|--0-----------0--------|--0---------0---------|
--------------------6-----|-----------------------|----------------------|


  Q    Q    Q    Q       Q    Q    Q    Q       S S S S Q    Q    Q    Q     
--3----1---------0----|--1----3----1----0----|------------------------------|
------------4---------|----------------------|------------------------------|
--0-------------------|-------0--------------|--0-----------------2----2----|
-------3----1----2----|--3---------3----2----|----4-3-2-1----0--------------|
------------0---------|--0---------0---------|--3----------------------0----|
----------------------|----------------------|-------------------------0----|


  Q    Q    Q    Q       Q    Q    Q    Q       Q    Q    Q    Q     
----------------------|----------------------|----------------------|
-----------------1----|--0--------------0----|--1----0--------------|
--2----2----2---------|-------1----2---------|------------2----1----|
----------------------|-----------------0----|----------------------|
-------0--------------|----------------------|----------------------|
-------0--------------|-------0--------------|-------0--------------|


                                                tr                    
  Q    H        E  E     Q    Q    Q    Q       Q       H.            
-------0--------------|----------------------|-----------------------|
-------0--------0--1--|-------1----3----3----|--1(3)-----------------|
--2-------------0--2--|--2---------4----4----|----------1------------|
-------2--------------|--3-------------------|----------2------------|
----------------------|----------------------|-----------------------|
----------------------|----------------------|-----------------------|


    Q    Q    Q    Q       Q    Q    Q    Q       Q    Q    Q    Q     
|--------0----0----0----|--0----0----3----1----|-------0----1----3----|
|--------1----1----1----|--1----1---------3----|--3----1----3----3----|
|*----------------------|----------------------|--5-------------------|
|*----------------------|----------------------|----------------------|
|---0-------------------|--0-------------------|--0-------------------|
|-------------2---------|------------2---------|------------2---------|


  Q    Q    S S S S Q       Q    Q    Q    Q       Q    Q    Q    Q     
--1----0----3-2-1-0------|-------5----5----5----|--5----5----8----7----|
--3----1------------3----|----------------------|----------------------|
-------------------------|-------5----5----5----|--5----5----8----7----|
-------------------------|----------------------|----------------------|
--0---------3------------|------------3---------|--2---------0---------|
-------------------------|--3-------------------|----------------------|


  Q    Q    Q    Q       Q    Q    Q    Q          Q.     E  E  E  E   E   
--4----5----7----8----|--7----5----4----5-----||--12------7--8--5------8--|
----------------------|-----------------------||--------------------------|
--5----5----5----5----|--5----5----5----5----*||--------------------------|
----------------------|----------------------*||--------------------------|
------------0---------|--7--------------------||--------------------------|
--0-------------------|------------3----------||----------9-----7-----10--|


              tr                                                            
   Q     Q    Q         Q       Q    Q    H           E  E  E  E  H         
--10----10----8(10)----------|--0----0----0--------|-----------------------|
------------------------9----|-------0----1--------|-----------------------|
-----------------------------|--2------------------|-----------------------|
-----------------------------|---------------------|-----------------------|
-----------------------11----|---------------------|--2--0-----0--2--------|
--12----12-------------------|---------------------|--------6--------------|


  Q    Q    H           E  E  E  E  H           Q    Q    Q    Q     
--0----0----0--------|-----------------------|--0----0----0----0----|
-------0----1--------|--3--1--0--1--3--------|-------0----1----3----|
--2------------------|-----------------------|--2-------------------|
---------------------|-----------------------|-----------------0----|
--0----2----3--------|-----------------------|--0----2----3---------|
---------------------|-----------------------|----------------------|


  Q    Q    Q    E  E     Q    Q    Q    Q       W                 
--0----5----4----5--7--|--5----0----5----8----|--0----------------|
-----------------------|------------5---------|--1----------------|
-----------------------|--5-------------------|--2----------------|
------------0----------|------------2---------|--3----------------|
-----------------------|----------------------|--3----------------|
--7---------2----------|--3-------------------|-------------------|


  Q    E  E  Q    Q       W                   E  E  E  E  H          
--L--------------------|--1----------------|--0--------------------||
----------0--1----3----|--1----------------|-----3-----------------||
-------2---------------|--2----------------|--------1--------------||
-----------------------|--1----------------|-----------2-----------||
-----------------------|--3----------------|--------------3--------||
-----------------------|-------------------|-----------------------||




Duration Legend
---------------
W - whole
H - half
Q - quarter
E - 8th
S - 16th

Tablature Legend
----------------

tr - trill
Login or Register to remove this ad.

2 comments on Kefka's Theme

Amazing tab!

5

Amazing tab!

The only thing I would change

5

The only thing I would change is from this:

                                              here|
|--------0----0----0----|--0----0----3----1----|-------0----1----3----|
|--------1----1----1----|--1----1---------3----|--3----1----3----3----|
|*----------------------|----------------------|--5-------------------|
|*----------------------|----------------------|----------------------|
|---0-------------------|--0-------------------|--0-------------------|
|-------------2---------|------------2---------|------------2---------|

to this:

                                              here|
|--------0----0----0----|--0----0----3----1----|-------0----1----3----|
|--------1----1----1----|--1----1---------3----|--4----1----3----3----|
|*----------------------|----------------------|--5-------------------|
|*----------------------|----------------------|----------------------|
|---0-------------------|--0-------------------|--0-------------------|
|-------------2---------|------------2---------|------------2---------|