Ads

Kefka's Theme (Final Fantasy VI) Guitar Tab

Submitted: Jul 25, 2009 by auriplane (Last updated: Feb 04, 2010)

5
Average: 5 (3 votes)
Download | Listen
Game: Final Fantasy VI
Composer(s): Nobuo Uematsu
Style: 2 or more instruments, Arrangement, Fingerstyle
Series: Final Fantasy

AutoScroll: Slow | Medium | Fast
                            Final Fantasy VI - Kefka GUITAR DUET
                                    Song by Nobuo Uematsu
         
                     Arranged & tabbed by auriplane ([email protected])



First Guitar

      E  E  E  E     E  E  E  E     E  E  E  E     Q    E  E     E  E  E  E     E  E  E  E   
e||---------------|--------------|--------------|-------------|--------------|--------------|
B||---------------|--------------|--------------|-------------|--------------|--------------|
G||*--------------|--------------|--------------|-------------|--------------|--------------|
D||*--------------|--------1-----|--3-----------|--4----3--1--|--3-----------|--------1-----|
A||---1-----3-----|--4-----------|--------4-----|-------------|--------4-----|--3-----------|
E||---------------|--------------|--------------|-------------|--------------|--------------|


  E  E  E  E     Q    E  E     E  E  E  E     Q    E  E     Q    E  E     E  E  E  E     H         
--------------|-------------|--------------|-------------|-------------|--------------|-----------|
--------------|-------------|--------------|-------------|-------------|--------------|-----------|
--------------|-------------|--------------|-------------|-------------|--------------|-----------|
--------------|-------------|--------------|-------------|-------------|--------------|-----------|
--4-----1-----|--0----1--3--|--1-----------|-------------|-------------|--------------|-----------|
--------------|-------------|--------2-----|--1----2-----|--1----2-----|--0-----1-----|-----------|


  Q    E  E     Q    E  E     Q    E  E     E  E  E  E     E  E  E  E     E  E  E  E   
-------------|-------------|-------------|--------------|--------------|--------------|
-------------|-------------|-------------|--------------|--------1-----|--2-----4-----|
-------------|-------------|-------------|--------------|--3-----------|--------------|
-------------|-------------|-------------|--------------|--------------|--------------|
-------------|-------------|-------------|--------------|--------3-----|--4-----6-----|
--2----1-----|--2----1-----|--0----1-----|--2-----1-----|--6-----------|--------------|


  E  E  E  E     Q    E  E     E  E  E  E     E  E  E  E     E  E  E  E     Q    E  E   
--1-----------|--2----1-----|--1-----------|--------------|--------------|-------------|
--------2-----|----------4--|--------2-----|--1-----4-----|--2-----------|-------------|
--------------|-------------|--------------|--------------|--------3-----|--2----3--5--|
--3-----------|--4----3-----|--3-----------|--------------|--------------|-------------|
--------4-----|----------6--|--------4-----|--3-----6-----|--4-----1-----|--0----1--3--|
--------------|-------------|--------------|--------------|--------------|-------------|


  Q    Q       Q    Q       Q    Q       Q    Q       Q    Q       Q    Q       Q    Q     
------------|------------|------------|------------|------------|------------|------------|
------------|------------|------------|--1----4----|------------|------------|------------|
--3---------|--3---------|--3---------|------------|--3---------|--3---------|--3---------|
------------|------------|------------|------------|------------|------------|------------|
--1---------|--1---------|--1---------|------------|--1---------|--1---------|--1---------|
------------|------------|------------|------------|------------|------------|------------|


  Q    Q       Q    Q       Q    Q       Q    Q       Q    Q       Q    Q       Q    Q     
------------|--2----2----|--2----2----|--2----2----|--2----2----|--2----2----|--2----2----|
--2----2----|--2----2----|--2----2----|--2----2----|------------|--2----2----|--2----2----|
------------|------------|------------|------------|------------|------------|------------|
------------|--4---------|--4---------|--4---------|------------|--4---------|--4---------|
------------|------------|------------|------------|------------|------------|------------|
--1----L----|--2---------|--2---------|--2---------|------------|--2---------|--2---------|


  Q    Q       Q    Q       Q.     E     E  E  E  E     Q    Q       Q    Q       Q    Q     
--2----2----|--2----2----|------------|--------------|------------|------------|-------1----|
--2----2----|--1----1----|--1---------|--------------|------------|------------|-------2----|
------------|------------|------------|--------------|------------|------------|--3---------|
--4---------|------------|--3---------|--------------|--1----1----|------------|------------|
------------|------------|---------3--|--4--1--L--4--|------------|--4----0----|--1---------|
--2---------|------------|------------|--------------|------------|------------|------------|


  Q    Q       Q    Q       Q    Q       Q    Q       Q    Q       Q    Q       H         
--1----1----|--1---------|------------|------------|------------|------------|-----------|
--2----2----|--2----2----|------------|--2----2----|--2----2----|--2----2----|--2--------|
------------|--3---------|------------|--3---------|------------|--3---------|-----------|
--3---------|------------|-------3----|------------|--3---------|------------|--2--------|
------------|--1---------|------------|--1---------|------------|--1---------|-----------|
--1---------|------------|-------1----|------------|--1---------|------------|--0--------|


  Q    Q       Q    Q       Q    Q       Q    Q       Q    Q       Q    Q       Q    Q     
------------|------------|------------|------------|------------|------------|------------|
------------|--2---------|------------|------------|------------|--2---------|------------|
------------|------------|--3---------|------------|------------|------------|--3---------|
--4---------|------------|------------|--3---------|--4---------|------------|------------|
------------|--4---------|--1---------|------------|------------|--4---------|--1---------|
--2---------|------------|------------|--1---------|--2---------|------------|------------|


  H           Q    Q       Q    Q       Q    Q       Q    Q       Q    Q       Q    Q     
-----------|-------1----|--1----1----|--1---------|------------|------------|------------|
-----------|-------2----|--2----2----|--2----2----|------------|--2----2----|--2----2----|
-----------|--3---------|------------|--3---------|------------|--3---------|------------|
--4--------|------------|--3---------|------------|-------3----|------------|--3---------|
-----------|--1---------|------------|--1---------|------------|--1---------|------------|
--2--------|------------|--1---------|------------|-------1----|------------|--1---------|


  Q    Q       H           Q    Q       Q    Q       Q    Q       Q    Q       Q    Q     
------------|-----------|------------|------------|------------|------------|------------|
--2----2----|--2--------|------------|--2---------|------------|------------|------------|
--3---------|-----------|------------|------------|--3---------|------------|------------|
------------|--2--------|--4---------|------------|------------|--3---------|--4---------|
--1---------|-----------|------------|--4---------|--1---------|------------|------------|
------------|--0--------|--2---------|------------|------------|--1---------|--2---------|


  Q    Q       Q    Q       H           Q.     E     E  E  E  E     Q    Q       Q    Q     
------------|------------|-----------|------------|--------------|------------|------------|
--2---------|------------|-----------|------------|--------------|------------|------------|
------------|--3---------|-----------|--5------5--|--6--3--L--6--|--8----8----|--6----2----|
------------|------------|--4--------|--3---------|--------------|------------|-------3----|
--4---------|--1---------|-----------|---------3--|--4--1--L--4--|--6----6----|--4----0----|
------------|------------|--2--------|------------|--------------|------------|------------|


  E  E  E  E     E  E  E  E     E  E  E  E     E  E  E  E     E  E  E  E     E  E  E  E   
--------------|--------------|--------------|--------------|--------------|--------------|
--------------|--------------|--------------|--------------|--------------|--------------|
--------------|--------------|--------------|--------------|--------------|--------------|
--------------|--------------|--------------|--------------|--------------|--------------|
--1-----3-----|--4-----------|--3--1--0--1--|--3-----------|--1-----3-----|--4-----------|
--------------|--------------|--------------|--------------|--------------|--------------|


  E  E  E  E     E  E  E  E     E  E  E  E     E  E  E  E     H           H           H         
--------------|--------------|--------------|--------------|-----------|-----------|-----------|
--------------|--------------|--------------|--------------|-----------|-----------|--2--------|
--------------|--------------|--------------|--------------|--3--------|--2--------|-----------|
--------------|--------------|--------------|--------1-----|--3--------|--1--------|--3--------|
--3--1--0--1--|--3-----------|--1-----3-----|--4-----------|--4--------|--3--------|--1--------|
--------------|--------------|--------------|--------------|-----------|-----------|-----------|


  H           H           H           Q    E  E     Q    Q       H           H           H         
-----------|--1--------|--L--------|-------------|------------|--0--------|--L--------|-----------|
--2--------|-----------|-----------|----------1--|--2----4----|-----------|-----------|-----------|
--1--------|--3--------|--L--------|-------3--3--|--3----3----|--3--------|--L--------|-----------|
--3--------|-----------|-----------|-------4-----|------------|-----------|-----------|-----------|
-----------|--4--------|--L--------|-------------|------------|--4--------|--L--------|-----------|
--4--------|--2--------|--L--------|-------------|------------|--2--------|--L--------|-----------|


                ^                                              
  H             H           H           H           H          
------------||--6--------|--L--------|--L--------|--L--------||
------------||--6--------|--L--------|--L--------|--L--------||
-----------*||--6--------|--L--------|--L--------|--L--------||
-----------*||--8--------|--L--------|--L--------|--L--------||
------------||--8--------|--L--------|--L--------|--L--------||
------------||--6--------|--L--------|--L--------|--L--------||





Second Guitar (Capo 5)



      E  E  E  E     E  E  E  E     E  E  E  E     Q    E  E     E  E  E  E     E  E  E  E   
e||---------------|--------------|--------------|-------------|--------------|--------------|
B||---------------|--------------|--1-----------|--2----1-----|--1-----------|--------------|
G||*--------0-----|--1-----3-----|--------1-----|----------3--|--------1-----|--0-----3-----|
D||*--3-----------|--------------|--------------|-------------|--------------|--------------|
A||---------------|--------------|--------------|-------------|--------------|--------------|
E||---------------|--------------|--------------|-------------|--------------|--------------|


  E  E  E  E     Q    E  E     E  E  E  E     Q    E  E     Q    E  E     E  E  E  E     H         
--------------|-------------|--------------|-------------|-------------|--------------|-----------|
--------------|-------------|--------------|-------------|-------------|--------------|-----------|
--1-----------|----------0--|--------------|-------------|-------------|--------------|-----------|
--------3-----|--2----3-----|--3-----------|-------------|-------------|--------------|-----------|
--------------|-------------|--------4-----|--3----4-----|--3----4-----|--2-----3-----|-----------|
--------------|-------------|--------------|-------------|-------------|--------------|-----------|


  Q    E  E     Q    E  E     Q    E  E     E  E  E  E     E  E  E  E     E  E  E  E   
-------------|-------------|-------------|--------------|--------------|--1-----3-----|
-------------|-------------|-------------|--------------|--------1-----|--------------|
-------------|-------------|-------------|--------------|--1--------0--|-----1-----3--|
-------------|-------------|-------------|--------------|-----3--------|--------------|
--4----3-----|--4----3-----|--2----3-----|--4-----3-----|--------------|--------------|
-------------|-------------|-------------|--------------|--------------|--------------|


  E  E  E  E     E  E  E  E     E  E  E  E     E  E  E  E     E  E  E  E     E  E  E  E   
--4-----1-----|--6-----4--3--|--4-----1-----|--0-----3-----|--1-----------|--0-----1--3--|
-----1--------|--------6--5--|-----1--------|--------------|--------2-----|-----------1--|
-----------1--|-----6--------|-----------1--|-----0-----3--|-----1--------|--3-----1-----|
--------------|--------------|--------------|--------------|-----------3--|-----2--------|
--------------|--------------|--------------|--------------|--------------|--------------|
--------------|--------------|--------------|--------------|--------------|--------------|


  Q    Q       Q    Q       Q    Q       Q    Q       Q    Q       Q    Q       Q    Q     
------------|------------|------------|------------|------------|------------|------------|
-------1----|--1----1----|--1----1----|--4----2----|--0----1----|--2----4----|--2----1----|
-------1----|--1----1----|--1----1----|------------|--1----1----|--1----1----|--1----1----|
------------|------------|------------|------------|------------|------------|------------|
------------|------------|------------|------------|------------|------------|------------|
------------|------------|------------|------------|------------|------------|------------|


  S  S  S  S  Q       Q    Q       Q    Q       Q    Q       Q    Q       Q    Q       Q    Q     
-------------------|-------1----|--1----1----|--1----1----|--4----3----|--0----1----|--3----4----|
--4p-3p-2p-1p-0----|------------|------------|------------|------------|------------|------------|
-------------------|------------|------------|------------|--4----3----|------------|------------|
-------------------|------------|------------|------------|------------|------------|------------|
-------------------|------------|------------|------------|------------|------------|------------|
-------------------|------------|------------|------------|------------|------------|------------|


                                                                     |--3--|  |--3--|       
  Q    Q       Q    Q       Q.     E     E  E  E  E     Q    Q       S  S  S  S  S  S Q     
--3----1----|--0----1----|------------|--------------|------------|------------------------|
------------|------------|--1---------|--------------|------------|------------------------|
------------|------------|---------0--|--1--------1--|--3----3----|--1h-3p-1h-3p-1p-0------|
------------|------------|------------|-----3--L-----|------------|-------------------2----|
------------|------------|------------|--------------|------------|------------------------|
------------|------------|------------|--------------|------------|------------------------|


  S S S S S S S S    S S S S Q       Q    Q       Q    Q       Q    Q       Q    Q       Q    Q     
------------------|----------1----|------------|------------|------------|------------|------------|
----------1-------|--------1------|-------1----|--4----2----|--0----1----|--2----4----|--2----1----|
--------1---1-----|--1---1--------|------------|--0----3----|------------|------------|------------|
------3-------3---|----3----------|------------|------------|------------|------------|------------|
----3-----------3-|---------------|------------|------------|------------|------------|------------|
--1---------------|---------------|------------|------------|------------|------------|------------|


  S  S  S  S  Q       Q    Q       Q    Q       Q    Q       Q    Q       Q    Q       Q    Q     
-------------------|-------1----|--1----1----|--1----1----|--4----3----|--0----1----|--3----4----|
--4p-3p-2p-1p-0----|-------2----|--2----2----|--2----2----|--2----2----|--2----2----|--2----2----|
-------------------|-------1----|--1----1----|--1----1----|--4----3----|--1----1----|--1----1----|
-------------------|------------|------------|------------|------------|------------|------------|
-------------------|------------|------------|------------|------------|------------|------------|
-------------------|------------|------------|------------|------------|------------|------------|


  Q    Q       Q    Q       S S S S S S S S    S S S S Q       Q    Q       Q    Q       Q    Q     
--3----1----|--0----1----|------------------|----------1----|------------|------------|------------|
--2----2----|--2----2----|----------1-------|--------1------|-------1----|--4----2----|--0----1----|
--1----1----|--0----0----|--------1---1-----|--1---1--------|------------|--0----3----|------------|
------------|------------|------3-------3---|----3----------|------------|------------|------------|
------------|------------|----3-----------3-|---------------|------------|------------|------------|
------------|------------|--1---------------|---------------|------------|------------|------------|


  Q    Q       Q    Q       S  S  S  S  Q       Q    Q       Q    Q       Q    Q       Q    Q     
------------|------------|-------------------|-------1----|--1----1----|--1----1----|--4----3----|
--2----4----|--2----1----|--4p-3p-2p-1p-0----|-------2----|--2----2----|--2----2----|--2----2----|
------------|------------|-------------------|-------1----|--1----1----|--1----1----|--4----3----|
------------|------------|-------------------|------------|------------|------------|------------|
------------|------------|-------------------|------------|------------|------------|------------|
------------|------------|-------------------|------------|------------|------------|------------|


  Q    Q       Q    Q       Q    Q       Q    Q       Q.     E     E  E  E  E     Q    Q     
--0----1----|--3----4----|--3----1----|--0----1----|--8------3--|--4--------4--|--6----6----|
--2----2----|--2----2----|--2----2----|--2----2----|------------|-----6--L-----|------------|
--1----1----|--1----1----|--1----1----|--0----0----|------------|--------------|------------|
------------|------------|------------|------------|------------|--------------|------------|
------------|------------|------------|------------|------------|--------------|------------|
------------|------------|------------|------------|------------|--------------|------------|


  |--3--|  |--3--|                                                                                  
  S  S  S  S  S  S Q       E  E  E  E     E  E  E  E     E  E  E  E     E  E  E  E     E  E  E  E   
--4h-6p-4h-6p-4p-3------|--------------|--------------|--------------|--------------|--------------|
-------------------5----|--1-----1-----|--1-----------|--------------|--------------|--1-----1-----|
------------------------|--------0-----|--1-----------|--0-----------|--0-----------|--------0-----|
------------------------|--3-----------|--------------|-----3--2--3--|--------------|--3-----------|
------------------------|--------------|--------------|--------------|--------------|--------------|
------------------------|--------------|--------------|--------------|--------------|--------------|


  E  E  E  E     E  E  E  E     E  E  E  E     E  E  E  E     E  E  E  E     Q    Q     
--------------|--------------|--------------|--------------|--------------|-------1----|
--1-----------|--------------|--------------|--1-----1-----|--1-----1-----|--1---------|
--1-----------|--3--1--0--1--|--3-----------|--------0-----|--1-----3-----|--1----L----|
--------------|--------------|--------------|--3-----------|--------------|------------|
--------------|--------------|--------------|--------------|--------------|------------|
--------------|--------------|--------------|--------------|--------------|------------|


  Q    E  E     Q    Q       Q    Q       H           H           H           H           H         
--0----1--3--|--1---------|--1----4----|--8--------|--L--------|--L--------|--L--------|--7--------|
--1----------|-------1----|--1----4----|--6--------|--L--------|--L--------|--L--------|-----------|
-------3--L--|--1----3----|------------|-----------|-----------|-----------|-----------|--4--------|
-------------|------------|------------|--6--------|--L--------|--L--------|--L--------|--6--------|
-------------|------------|------------|-----------|-----------|-----------|-----------|-----------|
-------------|------------|------------|-----------|-----------|-----------|-----------|-----------|


  H           E  E  E  E     E  E  E  E       H           H           H           H          
--L--------|--------7--6--|--4--3---------||-----------|-----------|-----------|-----------||
-----------|--------------|--------6--2---||-----------|-----------|-----------|-----------||
--L--------|--------------|--------------*||-----------|-----------|-----------|-----------||
--L--------|--------------|--------------*||-----------|-----------|-----------|-----------||
-----------|--------------|---------------||-----------|-----------|-----------|-----------||
-----------|--------------|---------------||-----------|-----------|-----------|-----------||




Duration Legend
---------------
W - whole
H - half
Q - quarter
E - 8th
S - 16th
. - note dotted
|-n-|  - n-tuplets


Tablature Legend
----------------
L - tied note
h - hammer on
p - pull off
^ - brush up
Login or Register to remove this ad.

2 comments on Kefka's Theme

Ha!

5

This is wondrous sounding.

Wish it were arranged for solo guitar, though. A solid piece nonethless.

I could try to make a solo

I could try to make a solo guitar arrangement, but it's a lot more challenging. I might not be able to do a good job o-o But I'll try XD