Johnny C. Bad (Final Fantasy VI) Bass/Guitar Tab

Submitted: May 21, 2014 by Johnny the pirate

0
Download | Listen
Game: Final Fantasy VI
Composer(s): Nobuo Uematsu
Style: 2 or more instruments, Transcription
Series: Final Fantasy

AutoScroll: Slow | Medium | Fast
Title: Johnny C Bad
Composer: Nobuo Uematsu
Game: Final Fantasy VI


Track 1: Guitar 1

E|--------|---------------------------------------|------------------------------------|
B|--------|-----15--14--15-----15--15--14--15-----|-----15--14--15-----15--14--15------|
G|--------|-----13--12--13-----13--13--12--13-----|-----13--12--13-----13--12--13------|
D|--------|---------------------------------------|------------------------------------|
A|--------|---------------------------------------|------------------------------------|
E|--------|---------------------------------------|------------------------------------|


E|---------------------------------------|------------------------------------|---------------------------------------|
B|-----14--13--14-----14--14--13--14-----|-----15--14--15-----15--14--15------|-----16--15--16-----14--14--13--14-----|
G|-----12--11--12-----12--12--11--12-----|-----13--12--13-----13--12--13------|-----14--13--14-----12--12--11--12-----|
D|---------------------------------------|------------------------------------|---------------------------------------|
A|---------------------------------------|------------------------------------|---------------------------------------|
E|---------------------------------------|------------------------------------|---------------------------------------|


E|------------------------------------|---------------------------------------|------------------------------------|
B|-----15--14--15-----15--14--15------|-----15--14--15-----15--15--14--15-----|-----15--14--15-----15--14--15------|
G|-----13--12--13-----13--12--13------|-----13--12--13-----13--13--12--13-----|-----13--12--13-----13--12--13------|
D|------------------------------------|---------------------------------------|------------------------------------|
A|------------------------------------|---------------------------------------|------------------------------------|
E|------------------------------------|---------------------------------------|------------------------------------|


E|---------------------------------------|------------------------------------|---------------------------------------|
B|-----14--13--14-----14--14--13--14-----|-----15--14--15-----15--14--15------|-----16--15--16-----14--14--13--14-----|
G|-----12--11--12-----12--12--11--12-----|-----13--12--13-----13--12--13------|-----14--13--14-----12--12--11--12-----|
D|---------------------------------------|------------------------------------|---------------------------------------|
A|---------------------------------------|------------------------------------|---------------------------------------|
E|---------------------------------------|------------------------------------|---------------------------------------|


E|--------------------------------------9------|-12-------------------9------|-12-------------------9------|
B|-----15--14--15-----15--14--15-----12-----12-|-9-----------------12-----12-|-9-----------------12-----12-|
G|-----13--12--13-----13--12--13---------------|-----------------------------|-----------------------------|
D|---------------------------------------------|-----------------------------|-----------------------------|
A|---------------------------------------------|-----------------------------|-----------------------------|
E|---------------------------------------------|-----------------------------|-----------------------------|


E|-12-------------------9------|-12--------------------------|-14--------12-------------9------|
B|-10----------------12-----12-|-9-----------------12-14--12-|-12--------10----------12-----12-|
G|-----------------------------|-----------------------------|---------------------------------|
D|-----------------------------|-----------------------------|---------------------------------|
A|-----------------------------|-----------------------------|---------------------------------|
E|-----------------------------|-----------------------------|---------------------------------|


E|-12-------------------9------|-12-------------------9------|-12-------------------9------|
B|-9-----------------12-----12-|-9-----------------12-----12-|-9-----------------12-----12-|
G|-----------------------------|-----------------------------|-----------------------------|
D|-----------------------------|-----------------------------|-----------------------------|
A|-----------------------------|-----------------------------|-----------------------------|
E|-----------------------------|-----------------------------|-----------------------------|


E|-12-------------------9------|-12--------------------------|-14--------12-------------9------|
B|-10----------------12-----12-|-9-----------------12-14--12-|-12--------10----------12-----12-|
G|-----------------------------|-----------------------------|---------------------------------|
D|-----------------------------|-----------------------------|---------------------------------|
A|-----------------------------|-----------------------------|---------------------------------|
E|-----------------------------|-----------------------------|---------------------------------|


E|-12---------|------------------------------------------------|------------------------------------------------|
B|-9----------|-----17-17-----15--15--------17------15--15--15-|-----17-17-----15--15--------17------15--15-----|
G|------------|-----16-16--16-16--16-----16-16--16--16--16--16-|-----16-16--16-16--16-----16-16--16--16--16--16-|
D|------------|-14---------------------------------------------|-14---------------------------------------------|
A|------------|------------------------------------------------|------------------------------------------------|
E|------------|------------------------------------------------|------------------------------------------------|


E|------------------------------------------------------|------------------------------------------|
B|-----17-19--17-20--19-17-----17--19-17------19-17-----|-17--15-----------------------------------|
G|-18-----------------------18------------18---------18-|---------15--16-14-----15--14-------------|
D|------------------------------------------------------|--------------------17--------17--14-14---|
A|------------------------------------------------------|------------------------------------------|
E|------------------------------------------------------|------------------------------------------|


E|-------------------------------------------------------------|--------12---------14--------16--12-14--12-12---|
B|-------------------------------------------------------------|------------------------------------------------|
G|-16-16-16-18--16-19--18-16-----14-14-14-16--14-17--16-14-----|-12--13-----13-15-----15--17--------------------|
D|----------------------------18----------------------------16-|------------------------------------------------|
A|-------------------------------------------------------------|------------------------------------------------|
E|-------------------------------------------------------------|------------------------------------------------|


E|-12----12----12------12----12--12-12--12-12--12-|-12----12----12------12--12--13--14--15--16--|
B|-15----15----15------15----15--15-15--15-15--15-|-15----15----15------15--15--16--17--18--19--|
G|------------------------------------------------|---------------------------------------------|
D|------------------------------------------------|---------------------------------------------|
A|------------------------------------------------|---------------------------------------------|
E|------------------------------------------------|---------------------------------------------|


E|-17---------------------------22--19---------------|--------------------------------------------------|
B|-----20-17--20-20--20--20-22---------22--20-17--20-|-17-----------------------------15-15--14--12-----|
G|---------------------------------------------------|-----19-16-15-14----------------------------------|
D|---------------------------------------------------|-----------------17--14---------------------------|
A|---------------------------------------------------|--------------------------------------------------|
E|---------------------------------------------------|--------------------------------------------------|


E|--------19---------19--------17---------17--------17-----|-------16-16--17--17--17-16--17--16--16---|
B|-18--19-----18-19-----18--19-----16-17-----16--17-----17-|-------17-17--17--17--17-17--17--17--17---|
G|---------------------------------------------------------|------------------------------------------|
D|---------------------------------------------------------|------------------------------------------|
A|---------------------------------------------------------|------------------------------------------|
E|---------------------------------------------------------|------------------------------------------|





Track 2: Guitar 2 (piano parts)

E|--------|-4---0--5---0--4---0---0--4---0--5---4---0---0--|-4---0--5---0--4---0---0--4---0--5---4---0---0--|
B|--------|------------------------------------------------|------------------------------------------------|
G|--------|------------------------------------------------|------------------------------------------------|
D|--------|------------------------------------------------|------------------------------------------------|
A|--------|------------------------------------------------|------------------------------------------------|
E|--------|------------------------------------------------|------------------------------------------------|


E|-5---0--7---0--5---0---0--5---0--7---5---0---0--|-4---0--5---0--4---0---0--4---0--5---4---0---0--|
B|------------------------------------------------|------------------------------------------------|
G|------------------------------------------------|------------------------------------------------|
D|------------------------------------------------|------------------------------------------------|
A|------------------------------------------------|------------------------------------------------|
E|------------------------------------------------|------------------------------------------------|


E|-5---0--7---0--5---0----------0--2---3---3--2--0-----|-0-----------------5---3--7---5---4---2---|
B|-----------------------0--2-----------------------2--|-----0--3---4--5--------------------------|
G|-----------------------------------------------------|------------------------------------------|
D|-----------------------------------------------------|------------------------------------------|
A|-----------------------------------------------------|------------------------------------------|
E|-----------------------------------------------------|------------------------------------------|


E|-4---0--5---0--4---0---0--4---0--5---4---0---0--|-4---0--5---0--4---0---0--4---0--5---4---0---0--|
B|------------------------------------------------|------------------------------------------------|
G|------------------------------------------------|------------------------------------------------|
D|------------------------------------------------|------------------------------------------------|
A|------------------------------------------------|------------------------------------------------|
E|------------------------------------------------|------------------------------------------------|


E|-5---0--7---0--5---0---0--5---0--7---5---0---0--|-4---0--5---0--4---0---0--4---0--5---4---0---0--|
B|------------------------------------------------|------------------------------------------------|
G|------------------------------------------------|------------------------------------------------|
D|------------------------------------------------|------------------------------------------------|
A|------------------------------------------------|------------------------------------------------|
E|------------------------------------------------|------------------------------------------------|


E|-5--5--5--5--5--5--5--5--5--5--5--5--3--3--3--3--3--3--3--3--3--3--3--3--|-10--0--9---0--7---0--9---0--7---0--5---4-------------|
B|-4--4--4--4--4--4--4--4--4--4--4--4--2--2--2--2--2--2--2--2--2--2--2--2--|------------------------------------------------------|
G|-------------------------------------------------------------------------|------------------------------------------------------|
D|-------------------------------------------------------------------------|------------------------------------------------------|
A|-------------------------------------------------------------------------|--------------------------------------------2--4---2--|
E|-------------------------------------------------------------------------|------------------------------------------------------|


E|-----------------------------|-----------------------------|-----------------------------|
B|-----------------------------|-----------------------------|-----------------------------|
G|-----------------------------|-----------------------------|-2---------------------------|
D|-2---------------------------|-2---------------------------|-2---------------------------|
A|-2-----------------2--4---2--|-2-----------------2--4---2--|-0-----------------2--4---2--|
E|-0---------------------------|-0---------------------------|-----------------------------|


E|-----------------------------|---------------------------------|-----------------------------|
B|-----------------------------|---------------------------------|-----------------------------|
G|-----------------------------|-4---------2---------------------|-----------------------------|
D|-2---------------------------|-4---------2---------------------|-2---------------------------|
A|-2-----------------2--4---2--|-2---------0-----------2--4---2--|-2-----------------2--4---2--|
E|-0---------------------------|---------------------------------|-0---------------------------|


E|-----------------------------|-----------------------------|-----------------------------|
B|-----------------------------|-----------------------------|-----------------------------|
G|-----------------------------|-----------------------------|-2---------------------------|
D|-2---------------------------|-2---------------------------|-2---------------------------|
A|-2-----------------2--4---2--|-2-----------------2--4---2--|-0-----------------2--4---2--|
E|-0---------------------------|-0---------------------------|-----------------------------|


E|-----------------------------|---------------------------------|------------|-4---0--5---0--4---0---0--4---0--5---4---0---0--|
B|-----------------------------|---------------------------------|------------|------------------------------------------------|
G|-----------------------------|-4---------2---------------------|------------|------------------------------------------------|
D|-2---------------------------|-4---------2---------------------|-2----------|------------------------------------------------|
A|-2-----------------2--4---2--|-2---------0-----------2--4---2--|-2----------|------------------------------------------------|
E|-0---------------------------|---------------------------------|-0----------|------------------------------------------------|


E|-4---0--5---0--4---0---0--4---0--5---4---0---0--|-5---0--7---0--5---0---0--5---0--7---5---0---0--|
B|------------------------------------------------|------------------------------------------------|
G|------------------------------------------------|------------------------------------------------|
D|------------------------------------------------|------------------------------------------------|
A|------------------------------------------------|------------------------------------------------|
E|------------------------------------------------|------------------------------------------------|


E|-4---0--5---0--4---0---0--4---0--5---4---0---0--|-5---0--7---0--5---2---2--3---0--5---3---0---0--|
B|------------------------------------------------|------------------------------------------------|
G|------------------------------------------------|------------------------------------------------|
D|------------------------------------------------|------------------------------------------------|
A|------------------------------------------------|------------------------------------------------|
E|------------------------------------------------|------------------------------------------------|


E|-4---0--5---0--4---0---0--4---0--5---4---0---0--|--------|--------|-5---0--7---0--5---0---0--5---0--7---5---0---0--|
B|------------------------------------------------|--------|--------|------------------------------------------------|
G|------------------------------------------------|--------|--------|------------------------------------------------|
D|------------------------------------------------|--------|--------|------------------------------------------------|
A|------------------------------------------------|--------|--------|------------------------------------------------|
E|------------------------------------------------|--------|--------|------------------------------------------------|


E|-4---0--5---0--4---0---0--4---0--5---4---0---0--|-5---0--7---0--5---2---2--3---0--5---3---0---0--|
B|------------------------------------------------|------------------------------------------------|
G|------------------------------------------------|------------------------------------------------|
D|------------------------------------------------|------------------------------------------------|
A|------------------------------------------------|------------------------------------------------|
E|------------------------------------------------|------------------------------------------------|


E|-4---0--5---0--4---0---0--4---0--5---4---0---0--|
B|------------------------------------------------|
G|------------------------------------------------|
D|------------------------------------------------|
A|------------------------------------------------|
E|------------------------------------------------|





Track 3: Bass

G|--------|---------------------------------|---------------------------------|-------------11--12--11----------|
D|--------|-------------11--12--11----------|-------------11--12--11----------|-----11--14--------------14--11--|
A|--------|-----11--14--------------14--11--|-----11--14--------------14--11--|-12------------------------------|
E|--------|-12------------------------------|-12------------------------------|---------------------------------|


G|---------------------------------|-------------13--------------11--|---------------------------------|
D|-------------11--12--11----------|-----13--16----------11--14------|---------------------------------|
A|-----11--14--------------14--11--|-14--------------12--------------|-----11--12--13--14--12--11------|
E|-12------------------------------|---------------------------------|-12--------------------------14--|


G|---------------------------------|---------------------------------|-------------11--12--11----------|
D|-------------11--12--11----------|-------------11--12--11----------|-----11--14--------------14--11--|
A|-----11--14--------------14--11--|-----11--14--------------14--11--|-12------------------------------|
E|-12------------------------------|-12------------------------------|---------------------------------|


G|---------------------------------|-------------13--------------11--|---------------------------------|
D|-------------11--12--11----------|-----13--16----------11--14------|---------------------------------|
A|-----11--14--------------14--11--|-14--------------12--------------|-----11--12--13--14--12--11------|
E|-12------------------------------|---------------------------------|-12--------------------------14--|


G|------------|------------|------------|------------|---------------------|------------|
D|------------|------------|------------|------------|---------------------|------------|
A|------------|------------|-12---------|------------|-14--------12--------|------------|
E|-12---------|-12---------|------------|-12---------|---------------------|-12---------|


G|-----------------------------------|---------------------------------|---------------------------------|
D|---------14--13-12--12-------------|-----------------14--------------|---------------------------------|
A|-----14----------------14--11------|---------11----------10--11--14--|-12------------------------------|
E|-12----------------------------14--|-12--14------12------------------|-----9---10--11--12--13--14--15--|


G|---------------------------------|---------------------------------|---------------------------------------|
D|---------------------14----------|---------------------------------|-------------11-----------------11-----|
A|-11------14--10--11------12--13--|-14--13--12--11--10--9---8-------|-----11--14------14-----11--14------14-|
E|-----12--------------------------|-----------------------------11--|-12-----------------12-----------------|


G|---------------------------------|---------------------------------|-------------11--12--11----------|
D|-------------11--12--11----------|-------------11--12--11----------|-----11--14--------------14--11--|
A|-----11--14--------------14--11--|-----11--14--------------14--11--|-12------------------------------|
E|-12------------------------------|-12------------------------------|---------------------------------|


G|---------------------------------|-------------13--------------11--|---------------------------------|
D|-------------11--12--11----------|-----13--16----------11--14------|---------------------------------|
A|-----11--14--------------14--11--|-14--------------12--------------|-----11--12--13--14--12--11------|
E|-12------------------------------|---------------------------------|-12--------------------------14--|


G|------------------------------------------------|---------------------------------------------|
D|------------------------------------------------|---------------------------------------------|
A|------------------------------------------------|-7-----7-----7-------7---7---8---9---10--11--|
E|-12----12----12------12----12--12-12--12-12--12-|---------------------------------------------|


G|-------------11--12--11----------|---------------------------------|-------------13--------------11--|
D|-----11--14--------------14--11--|-------------11--12--11----------|-----13--16----------11--14------|
A|-12------------------------------|-----11--14--------------14--11--|-14--------------12--------------|
E|---------------------------------|-12------------------------------|---------------------------------|


G|---------------------------------|
D|---------------------------------|
A|-----11--12--13--14--12--11------|
E|-12--------------------------14--|



Login or Register to remove this ad.