Ads

Gogo (Final Fantasy VI) Guitar Tab

Submitted: Jan 23, 2013 by The Ripper

5
Average: 5 (3 votes)
Download | Listen
Game: Final Fantasy VI
Composer(s): Nobuo Uematsu
Style: Arrangement, Fingerstyle
Series: Final Fantasy

This song is also called ゴゴのテーマ

AutoScroll: Slow | Medium | Fast
						Gogo
                                           Final Fantasy VI 
                                       Composed  by Nobuo Uematsu
                                Tabbed by the Ripper  january 22nd 2013



   Q    E  E  Q    Q       W                   Q    E  E  Q    Q     
E||-----------------------|-------------------|-----------------------|
B||-----------------------|-------------------|-----------------------|
G||-----------------------|-------------------|-----------------------|
D||-----------------------|-------------------|------------------0----|
A||--0----0--0--0----1----|--3----------------|--3----3--3--3---------|
E||-----------------------|-------------------|-----------------------|


                                                        |--3--|               
   W                     Q    E  S S Q    Q       E.  S E  E  E  E  E  E  E   
|-------------------||---3-------0-2-3----6----|--5---5----0--2--3--------L--|
|-------------------||--------3----------------|--------3--------------------|
|-------------------||*--------------0---------|-----------------0-----------|
|--1----------------||*-------0----L-----------|--0---L-4-----L-----0--1--0--|
|-------------------||--------------------4----|-----------------------------|
|-------------------||---3---------------------|-----------------------------|


   E  E  E  E  E  E  E  E     Q    Q    Q    Q       Q    E  S S Q    Q     
|--3--3-----1--------------|----------------------|--3-------0-2-3----6----|
|--------3-----4--3--1-----|-------2----3---------|-------3----------------|
|--0--L-----------------3--|--2-------------------|--------------0---------|
|--------3--L--1--L--------|----------------------|-------0----L-----------|
|--------------------3--L--|--0-------------------|-------------------4----|
|--------------------------|-------3----2---------|--3---------------------|


         |--3--|                                            
   E.  S E  E  E  E  E  E  E     E  E   E   E   Q     Q     
|--5---5----0--2--3--------L--|--8--8----------------10----|
|--------3--------------------|--------12--11--10----------|
|-----------------0-----------|----------------------11----|
|--0---L-4-----L-----0--1--0--|-----------------0----------|
|-----------------------------|---------L---L--------12----|
|-----------------------------|--8------L---9--------------|


   Q    Q    Q    Q          E   E   E   E   E   E  Q     
|--3----4----3----------||--15--15--15--14--13--12--L----|
|-------7---------------||--17--17--17--16--15--13-------|
|--3----6----3---------*||-------------------------------|
|--5----0----5---------*||-------------------------------|
|-----------------------||-------------------------------|
|-----------------------||-------------------------------|


                                                 |---3---|         
    E   E   E   E   H            E   E   E   E   E   E   E   Q     
|--15--15--14--13--12--------|--10--13--10--13--------------13----|
|--17--17--16--15--13--------|------------------11------10--------|
|----------------------------|----------------------13------------|
|----------------------------|------------------------------------|
|----------------------------|------------------------------------|
|----------------------------|------------------------------------|


            |---3--|                                     
    E   E   E  E   E   Q    Q       Q    Q    Q    Q     
|--10--13--12--9--10--18----L----|--3----5----6----5----|
|--------------------------------|------------3---------|
|--------------------------------|--3----5---------5----|
|--------------------------------|----------------------|
|--------------------------------|--3----3----3----3----|
|--------------------------------|----------------------|


                                       |---3---|   |---3---|   
   E  E  E  E  Q    Q       Q    Q     E   E   E   E   E   E   
|--6--6--5--3-------L----|--4---------10--13--10--------------|
|--8--8--6--5-------L----|--3---------------------11----------|
|------------------------|----------------------------10--12--|
|------------------------|------------------------------------|
|--------3--L--3----3----|--1---------------------------------|
|--8--L------------------|------------------------------------|


            |--3--|  |--3--|               |--3--|  |--3--|   
   H        E  E  E  E  E  E      H        E  E  E  E  E  E   
|-----------------------------|------------1--1--1--1--0-----|
|--9--------9--9--9--9--8--7--|---------------------------4--|
|-----------------------------|--10--------------------------|
|-----------------------------|------------------------------|
|-----------------------------|------------------------------|
|-----------------------------|------------------------------|


   E  E  E  E  E  E  E  E     E  E  E  E  E  E  E  E    
|--------------------------|--------------------------||
|--3--------------------L--|--------------------------||
|--------------------------|--------------------------||
|-----0-----0-----0-----0--|-----0-----0-----0-----0--||
|--------1-----------1-----|--------1-----------1-----||
|--3-----------3-----------|--3-----------3-----------||



*Bars 14-16 lack a bass line. Here is an alternate way to play It. (all credit to auriplane)

    1   1   1   1   1   1           1   1   1   1   1
    4   4   4   3   3   4           4   4   3   3   4
    2       2       2               2       2       2
    E   E   E   E   E   E  Q        E   E   E   E   H 
|--15--15--15--14--13--12--L----|--15--15--14--13--12--------|
|--17--17--17--16--15-----------|--17--17--16--15------------|
|----------------------17-------|------------------17--------|
|-------------------------------|----------------------------|
|--15------15------15-----------|--15------15------15--------|
|-------------------------------|----------------------------|
                                 
       1       1               1            1
   4       4       4   1   2            3       4   1  3   4
   3       3       3           3        2       2          2
                   |---3---|                    |---3--| 
   E   E   E   E   E   E   E   Q        E   E   E  E   E   Q    Q 
------13------13--------------13----|------13-------------18----L----|
--15------15------------------------|--15------17--14-15-------------|
------------------15--13--14--------|--------------------------------|
--15------15------15----------15----|--15------15---------15---------|
------------------------------------|--------------------------------|
------------------------------------|--------------------------------|














                         Legend
	             ---------------
			W - whole
			H - half
			Q - quarter
			E - 8th
			S - 16th
			T - 32nd
			X - 64th
			. - note dotted
			|-n-|  - n-tuplets
			L - tied note
Login or Register to remove this ad.

1 comment on Gogo

Sounds as accurate as

5

Sounds as accurate as possible, thanks!