Ads

Gau (Final Fantasy VI) Guitar Tab

Submitted: Apr 01, 2012 by Ennea

5
Average: 5 (7 votes)
Download | Listen
Game: Final Fantasy VI
Composer(s): Nobuo Uematsu
Style: Arrangement, Fingerstyle
Series: Final Fantasy

AutoScroll: Slow | Medium | Fast
Title: Gau's Theme                                   
Game: Final Fantasy VI
Composed by: Nobuo Uematsu
Tab by: Ennea


Standard Tuning
BPM = 41

     E  S S S S S S S S S S S E.     S S S S E  E  S S S S Q     
E||---------------------0---------|--2-4-5---------0------------|
B||-----2-----2-0-----------------|----------2--4---------------|
G||---------------2-1-2-------1---|-------------4--------1------|
D||--2------2---------------2-----|--------------------2---2----|
A||-------0---------------4-------|--------4---------2----------|
E||-------------------------------|------2---------0------------|


  S S S S S S S S S S S E  S S S    S S S S S S S S S S S S S S E   
---------------------------------|---------------------------------|
--3-2-3-----2-3------------3-----|--2-0-2-----0-2-----------2---4--|
------4-4-----4---------0----4---|------2-2-----1------------------|
----4---4---4---4-----0--------4-|----2---2---2---2---------2------|
--2-------0---------2------------|--0-----------------0-4-0---0----|
------------------3--------------|----------4-------2-----------4--|


  ^       ^                          ^                           ^   
  S S S S S S S S S S S S S S S S    S S S S S S S S S S S S S S E   
--0-------------------------------|---------------------------------|
--2-------2---------------7-5-4-7-|--5-4-5-----------------------4--|
------2---2---2-------2-----------|--6-----6-----6-------6---6---4--|
----2---2---2---2---2---2-7-6-4-7-|------------6---6---6---6---6-4--|
--0-------0-------0---------------|--4-------4-------4-------4------|
----------------------------------|---------------------------------|


  ^       ^               ^  ^     ^                                      
  S S S S S S S S S S S S E  E     S S S S S S S S H                      
--0-----------------------------|---------------------------|-----------||
--2-------2---------------2--4--|--6-----4-6----------------|-----------||
------2---2---2-------2---2--4--|--6---6-----5-6------------|-----------||
----2---2---2---2---2---2-------|----6-----------5-6--------|-----------||
--0-------0-------0-------0--2--|--4------------------------|-----------||
--------------------------------|--4------------------------|-----------||




Duration Legend
---------------
W - whole
H - half
Q - quarter
E - 8th
S - 16th
T - 32nd
X - 64th
. - note dotted
|-n-|  - n-tuplets


Tablature Legend
----------------
L - tied note
x - dead note
g - grace note
(n) - ghost note
> - accentuded note
NH - natural harmonic
AH - artificial harmonic
TH - tapped harmonic
SH - semi harmonic
PH - pitch harmonic
h - hammer on
p - pull off
b - bend
br - bendRelease
pb - preBend
pbr - preBendRelease
brb - bendReleaseBend
\n/ - tremolo bar dip
\n - tremolo bar dive
-/n - tremolo bar Release up
/n\ - tremolo bar inverted dip
/n - tremolo bar return
-\n - tremolo bar Release down
S - shift slide
s - legato slide
/ -  slide into from below or out of upwards
\ -  slide into from above or out of downwards
~ - vibrato
W - wide vibrato
tr - trill
TP - tremolo picking
T - tapping
S - slap
P - pop
< - fade in
^ - brush up
v - brush down
Login or Register to remove this ad.

2 comments on Gau

oh

5

I like how it sounds, 5 stars!!!

GOOD

i like it