Ads

From That Day On... (Final Fantasy VI) Guitar Tab

Submitted: Aug 26, 2010 by Daugreano

3
Average: 3 (1 vote)
Download | Listen
Game: Final Fantasy VI
Composer(s): Nobuo Uematsu
Style: Transcription
Series: Final Fantasy

This song is also called The Day After

AutoScroll: Slow | Medium | Fast
Song: The Day After
Game: Final Fantasy VI
Composer: Nobuo Uematsu
Tabbed by: Daugreano

Guitar: 

       Play these first four measures 2x as a group, then play the fifth measure 4x...
|------------------------------------------------------------------------------------------|
   E   E   E   E   Q    Q      E   E   H.       E   E   E   E   Q    Q      E   E   H.
E|---------------------------|----------------|---------------------------|----------------|
B|-----1---0---1-------------|---------0------|---------------------------|----------------|
G|-----------------2---------|----------------|-----3---2---3-------------|---------2------|
D|----------------------2----|-1---4----------|-----------------3----0----|-----2----------|
A|---------------------------|----------------|---------------------------|-4--------------|
E|---------------------------|----------------|---------------------------|----------------|

   E   Q    E   E   E   E   E     H.     Q      Q    H     E   E     Q    Q    E   E   E   E  
E|------------------------------|-------------|--------------------|---------------------------|
B|-----0----0-------0-----------|-------------|--------------------|------0--------0-----------|
G|-2------------2-------2-------|-2------0----|-2--------------0---|-2---------2-------2---0---|
D|--------------------------2---|-------------|------2-----2-------|---------------------------|
A|------------------------------|-------------|--------------------|---------------------------|
E|------------------------------|-------------|--------------------|---------------------------|

   E   H..      H.     Q      Q    H     E   E     Q    Q    E   E   E   E     E   H..
E|------------|-------------|--------------------|---------------------------|------------|
B|------------|-------------|--------------------|------0--------0-----------|------------|
G|-2----------|-2------0----|-2--------------0---|-2---------2-------2---0---|-2----------|
D|-----2------|-------------|------2-----2-------|---------------------------|-----2------|
A|------------|-------------|--------------------|---------------------------|------------|
E|------------|-------------|--------------------|---------------------------|------------|

   H.     Q      Q    H     E   E     Q    Q    E   E   E   E     Q.    S  S  H
E|-------------|--------------------|---------------------------|-------------------|
B|-1------0----|-1--------------0---|------5----3---5---3-------|-------------------|
G|-------------|------0-----0-------|-5---------------------2---|-2-----4P-2P-1-----|
D|-------------|--------------------|---------------------------|-------------------|
A|-------------|--------------------|---------------------------|-------------------|
E|-------------|--------------------|---------------------------|-------------------|

   H.     Q      Q    H     E   E     Q    Q    E   E   E   E     E   H..
E|-------------|--------------------|---------------------------|------------|
B|-------------|--------------------|------0--------0-----------|------------|
G|-2------0----|-2--------------0---|-2---------2-------2---0---|-2----------|
D|-------------|------2-----2-------|---------------------------|-----2------|
A|-------------|--------------------|---------------------------|------------|
E|-------------|--------------------|---------------------------|------------|

Repeat the whole thing...

Login or Register to remove this ad.