Ads

Forever Rachel (Final Fantasy VI) Guitar Tab

Submitted: Mar 31, 2014 by Colin_spade

4.75
Average: 4.8 (8 votes)
Download | Listen
Game: Final Fantasy VI
Composer(s): Nobuo Uematsu
Style: Arrangement, Fingerstyle
Series: Final Fantasy

AutoScroll: Slow | Medium | Fast
                                Forever Rachael                                 


                                                                   Nobuo Uematsu
Track 1



     Q.     E  E  E  E  E     W                   Q.     E  E  E  E  E   
E||--3------3--2--0-----2--|--0----------------|------------------------|
B||------------------3-----|-------------------|--1------1--0--------0--|
G||------------------------|-------------------|---------------2--0-----|
D||--2---------0-----------|-------------------|------------------------|
A||------------------------|--3----------------|--0---------------------|
E||------------------------|-------------------|------------3-----------|


  W                   Q.     E  E  E  E  E     H        Q    Q     
-------------------|--1------1--0--------0--|---------------------|
-------------------|---------------3--1-----|--3-------------1----|
--2----------------|------------------------|-----------3---------|
-------------------|--0---------------------|---------------------|
-------------------|------------3-----------|--1------------------|
--1----------------|------------------------|---------------------|


  E  E  E  E  E  E  E  E     E  E  E  E  E  E  E  E   
--------------------------|--------------------------|
--3-----------------------|--------------------1-----|
--------------------------|--------------3-----------|
--------0-----------0-----|--------0-----------0-----|
-----1-----1-----1-----1--|-----1-----1-----1-----1--|
--3-----------3-----------|--3-----------3-----------|


                             ^                                       
  E  E  E  E  E  E  E  E     W                   H        Q    Q     
--------------------------|-------------------|--3-------------3----|
--3-----------------------|--3----------------|-----------3---------|
-----0--2--0-----0--2--0--|--2----------------|--0-------------0----|
--0-----------0-----------|--4----------------|---------------------|
--------------------------|--5----------------|---------------------|
--------------------------|-------------------|---------------------|


  H.            Q       Q     Q     Q    Q       Q    H        Q     
--5------------10----|--8---------------------|---------------------|
---------------------|-------11----10----8----|--6------------------|
---------------------|------------------------|-------7--------7----|
--3------------------|------------------------|---------------------|
---------------------|--6----------------6----|---------------------|
---------------------|------------------------|--6------------------|


  Q    Q    Q    Q       W                   Q    Q    Q    Q     
------------3---------|--3----------------|------------3---------|
--3-------------------|-------------------|----------------------|
-------5--------------|-------------------|--5----3--------------|
----------------------|-------------------|-----------------0----|
--3-------------------|--3----------------|----------------------|
-----------------3----|-------------------|--3-------------------|


  Q    Q    Q    Q       H        Q    Q       Q    Q    Q    Q     
-------3----5----6----|--5--------0---------|-------0----3----2----|
----------------------|---------------------|----------------------|
----------------------|---------------------|----------------------|
----------------------|---------------------|----------------------|
----------------------|--0-------------0----|--4--------------4----|
--3-------------------|---------------------|----------------------|


                                            ^                   
  H.           Q       H        H           H        Q    Q     
--5-----------------|--L-----------------|---------------------|
--------------------|--------------------|---------------------|
--------------------|--------------------|--0-------------0----|
--0-----------------|--0-----------------|--0--------0---------|
---------------0----|--------------------|--1------------------|
--------------------|-----------2--------|--3------------------|


                       ^                                         
  H.           Q       Q    Q    Q    Q       Q    H.            
--------------------|----------------------|--------------------|
---------------3----|--1-------------------|-------3------------|
--2-----------------|-------3----2----0----|--3-----------------|
--------------------|--1-------------------|--0----0------------|
--3-----------------|--1-------------------|--1-----------------|
--1-----------------|--3-------------------|--------------------|


                                              ^                 
  Q    Q    Q    Q       H        H           W                 
------------3----6----|--5--------2--------|--3----------------|
--3-------------------|--------------------|-------------------|
-------5--------------|--------------------|-------------------|
----------------------|--0-----------------|--0----------------|
--3-------------------|--3-----------------|--3----------------|
--4-------------------|--2-----------------|--3----------------|


  ^                   
  W                   
--------------------||
--------------------||
--0----------------*||
--0----------------*||
--2-----------------||
--3-----------------||




Duration Legend
---------------
W - whole
H - half
Q - quarter
E - 8th
S - 16th
T - 32nd
X - 64th
. - note dotted
|-n-|  - n-tuplets


Tablature Legend
----------------
L - tied note
x - dead note
g - grace note
(n) - ghost note
> - accentuded note
NH - natural harmonic
AH - artificial harmonic
TH - tapped harmonic
SH - semi harmonic
PH - pitch harmonic
h - hammer on
p - pull off
b - bend
br - bendRelease
pb - preBend
pbr - preBendRelease
brb - bendReleaseBend
\n/ - tremolo bar dip
\n - tremolo bar dive
-/n - tremolo bar Release up
/n\ - tremolo bar inverted dip
/n - tremolo bar return
-\n - tremolo bar Release down
S - shift slide
s - legato slide
/ -  slide into from below or out of upwards
\ -  slide into from above or out of downwards
~ - vibrato
W - wide vibrato
tr - trill
TP - tremolo picking
T - tapping
S - slap
P - pop
< - fade in
^ - brush up
v - brush down
Login or Register to remove this ad.

1 comment on Forever Rachel

Excellent!

5

Excellent!