Ads

Forever Rachel (Final Fantasy VI) Guitar Tab

Submitted: May 21, 2009 by TheDoomOfAllFires (Last updated: Feb 04, 2010)

5
Average: 5 (7 votes)
Download | Listen
Game: Final Fantasy VI
Composer(s): Nobuo Uematsu
Style: Arrangement, Fingerstyle
Series: Final Fantasy

AutoScroll: Slow | Medium | Fast
Final Fantasy VI - Forever Rachel
Arranged By TheDoomOfAllFires; 05/21/2009

BPM=90
Drop-D tuning


Hope you like it ! ^^



                                 ^                               ^            
      E  E  E  E  E  E  E  E     W                   E  E  E  E  E  E  E  E   
E||---3--------3--2--0-----2--|--0----------------|--------------------------|
B||---------0-----------3-----|-------------------|--1--------1--0--------0--|
G||*-----0--------2-----------|--0----------------|--------2--------2--0-----|
D||*--2-----------0-----4-----|-------------------|-----2--------0-----2-----|
A||---------------------------|--3----------------|--0-----------------------|
D||---------------------------|-------------------|--------------5-----------|


                                  ^              ^                   
  W                   E  E  E  E  E  E  E  E     H        Q    Q     
-------------------|--1--------1--0--------0--|---------------------|
-------------------|--------3--------3--1-----|--3-------------1----|
--2----------------|-----2--------0-----------|--3--------3---------|
--3----------------|--0-----------------2-----|---------------------|
-------------------|--------------3-----------|--1------------------|
--3----------------|--------------------------|---------------------|


  E  E  E  E  E  E  E  E     E  E  E  E  E  E  E  E   
--------------------------|--------------------------|
--3-----------------------|--------------------1-----|
--------3--2--0-----------|--------3--2--3-----------|
-----3-----------3--2--0--|-----0--------5--3--2--0--|
--1-----------------------|--------------------------|
--------------------------|--5-----------------------|


  E  E  E  E  E  E  E  E     W                   E  E  E  E  E  E  E  E   
--------------------------|-------------------|--3-----------------3-----|
--3-----------------------|--3----------------|--------------3-----------|
--------------2--------2--|-------------------|-----0--3-----3-----3-----|
--------0--4-----0--4-----|-------------------|-----------0-----0-----0--|
-----0--------------------|-------------------|--------------------------|
--0-----------------------|-------------------|--5-----------5-----------|


  E  E  E  E  E  E   E  E     E  E  E  E  E  E  E  E   
--5-----------------10-----|--8-----6-----5-----3-----|
---------------------------|--------------6-----------|
--------5-----3------------|-----0--8--0-----0-----3--|
-----3-----3---------------|--------------------------|
------------------------8--|--6-----------------------|
--3--------------0---------|--------------------------|


  E  E  E  E  E  E  E  E     E  E  E  E  E  E  E  E   
--1-----------------------|--------------3-----------|
--3-----3-----------3-----|--3-----1-----1-----1-----|
-----2-----2-----2--------|-----0-----------------0--|
--0-----3-----0--------0--|--------------------------|
--------------------------|--3--------3-----3--------|
--------------------------|--------------------------|


  E  E  E  E  E  E  E  E     E  E  E  E  E  E  E  E   
--------------3--------6--|--5-----0-----------------|
--------------3-----------|--2-----2-----------------|
--5-----3-----------0-----|--2--------2--------2-----|
--5--0--5--------0--------|--2--2-----------2-----2--|
--------------------------|--0-----------0-----------|
--5--------5--------------|--------------------------|


  E  E  E  E  E  E  E  E     E  E  E  E  E  E  E  E   
--------0-----3-----2-----|--5-----------2-----------|
--------2-----------------|--------3-----------3-----|
-----------2--------2-----|-----2-----2-----2-----2--|
-----2-----------2-----2--|--0-----------------------|
--0-----------0-----------|--------------------------|
--------------------------|--------------------------|


  E  E  E  E  E  E  E  E     E  E  E  E  E  E  E  E   
--------------2-----------|--3-----------------3-----|
--------3-----------------|--------------3-----------|
-----2-----2-----2-----2--|-----0--3-----3-----3-----|
--0-----------------0-----|-----------0-----0-----0--|
--------------0-----------|--------------------------|
--------------------------|--5-----------5-----------|


  E  E  E  E  E  E   E  E     E  E  E  E  E  E  E  E   
--5-----------------10-----|--8-----6-----5-----3-----|
---------------------------|--------------6-----------|
--------5-----3------------|-----0--8--0-----0-----3--|
-----3-----3---------------|--------------------------|
------------------------8--|--6-----------------------|
--3--------------0---------|--------------------------|


  E  E  E  E  E  E  E  E     E  E  E  E  E  E  E  E   
--1-----------------------|--------------3-----6-----|
--3-----3-----------3-----|--3-----1-----1-----------|
-----2-----2-----2--------|-----0-----------------0--|
--0-----3-----0--------0--|--------------------------|
--------------------------|--3--------3-----3--------|
--------------------------|--------------------------|


  E  E  E  E  E  E  E  E     E  E  E  E  E  E  E  E     W                   
--5-----2-----2-----3-----|--3-----------------------|--------------------||
--------3-----------------|--------3-----------3-----|--------------------||
-----2-----2-----2-----2--|-----3-----3-----3-----3--|-------------------*||
--0-----------0-----------|--------------------------|-------------------*||
--------------------------|--------------------------|--------------------||
--------------------------|--5-----------5-----------|--5-----------------||


  W                  
-------------------||
-------------------||
-------------------||
-------------------||
-------------------||
--L----------------||




Duration Legend
---------------
W - whole
H - half
Q - quarter
E - 8th
S - 16th
T - 32nd
X - 64th
. - note dotted
|-n-|  - n-tuplets


Tablature Legend
----------------
L - tied note
x - dead note
g - grace note
(n) - ghost note
> - accentuded note
NH - natural harmonic
AH - artificial harmonic
TH - tapped harmonic
SH - semi harmonic
PH - pitch harmonic
h - hammer on
p - pull off
b - bend
br - bendRelease
pb - preBend
pbr - preBendRelease
brb - bendReleaseBend
\n/ - tremolo bar dip
\n - tremolo bar dive
-/n - tremolo bar Release up
/n\ - tremolo bar inverted dip
/n - tremolo bar return
-\n - tremolo bar Release down
S - shift slide
s - legato slide
/ -  slide into from below or out of upwards
\ -  slide into from above or out of downwards
~ - vibrato
W - wide vibrato
tr - trill
TP - tremolo picking
T - tapping
S - slap
P - pop
< - fade in
^ - brush up
v - brush down
Login or Register to remove this ad.

2 comments on Forever Rachel

Wow.

5

This Is Amazing,
Thank You (:
Forever Rachel's Always Been One Of My Favourites (:

Merci pour la tablature je

Merci pour la tablature je vais essayer de l'apprendre :)