Ads

Epitaph (Final Fantasy VI) Guitar Tab

Submitted: Aug 20, 2020 by chimatte (Last updated: Sep 08, 2020)

5
Average: 5 (2 votes)
Download | Listen
Game: Final Fantasy VI
Composer(s): Nobuo Uematsu
Style: Fingerstyle
Series: Final Fantasy

Click here for a video example.

AutoScroll: Slow | Medium | Fast
                                    EPITAPH                                     


Traccia 1
     E  E  E  E  H           E  E  E  E  H           E  E  E  E  H         
E||-----------0--L--------|-----------0--L--------|-----------0--L--------|
B||--------2--------------|--------3--------------|--------2--------------|
G||-----2-----------------|-----0-----------------|-----2-----------------|
D||-----------------------|-----------------------|-----------------------|
A||--0--L--L--L--L--------|-----------------------|--0--L--L--L--L--------|
D||-----------------------|--2--L--L--L--L--------|-----------------------|


  E  E  E  E  H              E   E   E   E  Q.     E     E  E  E  E  Q    Q     
-----------0--L--------||-----------12--10--9------5--|--7--9--7--L-------7----|
--------3--------------||---10---L--------------------|--------------8---------|
-----0-----------------||*---------------9--L---------|-----0--7--9--L----L----|
-----------------------||*----------11----------------|------------------------|
-----------------------||----0--12--------------------|--7---------------------|
--2--L--L--L--L--------||-----------------------------|------------------------|


  E  E  E  E  E  E  E  E     E  E  E  E  H         
--5--L--L-----1--L--------|--0--L--L--0--L--------|
-----------5--------3--L--|--------2--------------|
--------2--------2--------|-----2-----------------|
-----2--------0--L--L--3--|-----------------------|
--0-----------------------|--0--L--L--L--L--------|
--------------------------|-----------------------|


   E   E   E   E  Q.      E      E   E   E   E   Q.      E   
----------12--10--9----------|--15---L--13---L--12------10--|
--10---L-----------------10--|------------------------------|
---------------9--L----------|---0----------12---L----------|
----------11-----------------|----------12------------------|
---0--12---------------------|------13----------------------|
-----------------------------|------------------------------|


   E   E   E   E  E  E  E  E     E  E  E  Q    E  Q     
--12---L----------0--L--------|-----------0------------|
----------10---L--------------|------------------------|
---------------------0--7--L--|--6--L--6-------6-------|
----------11------------------|-----7-------------7----|
---0--12------12--7--L--5--7--|--0--L--L--L----L--L----|
------------------------------|------------------------|


   E   E   E   E  E  E   E   E      E   E   E   Q     E   Q     
--12--10---8------7--8--10--12--|---L---L---L---0--------------|
--------------10---------0---L--|-----------0---------0--------|
---------------------0----------|-------0-----------------0----|
---0------10---L----------------|------------------------------|
------12------------------------|------------------------------|
------------------5--L----------|--10---L---L---L-----L---L----|


  E  E  E  E  E  E  E  E     E  E  E  Q    E  Q       E  E  E  E  E  E  E  E   
--3--2--0-----------0--2--|--L--L--L--2------------|--1--L--L--L--L--L--0--1--|
--------3-----2--3--2--L--|--------2-------2--3----|--3--L--L--L--L--L--------|
-----0-----4-----0--------|-----2-------------2----|--3-----3-----3-----3-----|
--------------------------|--0--L--L--L----L--L----|-----3-----3-----3-----3--|
--------------0--L--L--L--|------------------------|--1--L--L--L--L--L--------|
--2--L--L--L--------------|------------------------|--------------------------|


  E  E  E  E  E  E  E  E     E  E  E  E  E  E  E  E   
--3--L--L--L--L--L--L-----|-----------------5--3-----|
--3--------------------3--|--6--L--L--L--L--------6--|
--0-----3-----3-----3-----|--3-----3-----3-----3-----|
-----2-----2-----2-----2--|--3--5-----5-----5-----5--|
--------------------------|--------------------------|
--2--L--L--L--L--L--L--L--|--5--L--L--L--L--L--L--L--|


  E  E  E  E  E  E  E  E     E  E  E  E  E  E  E  E   
--3--L--L--L--L--L--------|--5--L--L-----------------|
--------------------5--L--|--3-----3--5--3--5--3--0--|
--3-----3-----3-----3-----|--2--2-----------4--------|
-----5-----5-----5-----5--|--------------------2--0--|
--3--L--L--L--L--L--L--L--|--0--L--L--L--L--L--L--L--|
--------------------------|--------------------------|


  E  E  E  E  E  E  E  E     E  E  E  E  E  E  E  E     E  E  E  E  H           
-----------0--------0-----|-----------3--------------|------------------------||
--2--L--2-----2--------2--|--1--L--1-----1-----------|--------------7---------||
--2--2-----------2--------|--0--2-----------2--0-----|-----2--5--------------*||
--2-----------------------|--0--L--L--L--L--------2--|--4--------7-----------*||
--0--L--L--L--L--L--L--L--|-----------------0--L--L--|--5--L------------------||
--------------------------|--------------------------|------------------------||




Duration Legend
---------------
W - whole
H - half
Q - quarter
E - 8th
S - 16th
T - 32nd
X - 64th
. - note dotted
|-n-|  - n-tuplets


Tablature Legend
----------------
L - tied note
x - dead note
g - grace note
(n) - ghost note
> - accentuded note
NH - natural harmonic
AH - artificial harmonic
TH - tapped harmonic
SH - semi harmonic
PH - pitch harmonic
h - hammer on
p - pull off
b - bend
br - bendRelease
pb - preBend
pbr - preBendRelease
brb - bendReleaseBend
\n/ - tremolo bar dip
\n - tremolo bar dive
-/n - tremolo bar Release up
/n\ - tremolo bar inverted dip
/n - tremolo bar return
-\n - tremolo bar Release down
S - shift slide
s - legato slide
/ -  slide into from below or out of upwards
\ -  slide into from above or out of downwards
~ - vibrato
W - wide vibrato
tr - trill
TP - tremolo picking
T - tapping
S - slap
P - pop
< - fade in
^ - brush up
v - brush down
Login or Register to remove this ad.