Ads

Edgar And Mash (Final Fantasy VI) Guitar Tab

Submitted: Apr 25, 2009 by TheDoomOfAllFires (Last updated: Feb 03, 2010)

5
Average: 5 (7 votes)
Download | Listen
Game: Final Fantasy VI
Composer(s): Nobuo Uematsu
Style: Arrangement, Fingerstyle
Series: Final Fantasy

AutoScroll: Slow | Medium | Fast
Final Fantasy VI - Edgar & Mash
Arranged by TheDoomOfAllFires; 25/04/2009

BPM=90
Capo=4
Drop-D tuning

Hope you like it ! ^^



      ^         ^                                         
                                                  |--3-|  
      Q    Q    Q.     E     E  E  E  E  E  E  E  S S  S  
E||---0----3----2---------|--0--3--2-----0--3--2--0-2h-3-|
B||---1---------3------3--|--------3--3--1---------------|
G||*--2-------------------|--------------2---------------|
D||*-------2----4---------|--------0-----------0---------|
A||---0-------------------|--0---------------------------|
D||-------------0---------|------------------------------|


                   ^                                  ^         ^          
  E  E  E  E  Q    Q       E  E  E  E  E  E  E  E     Q    Q    Q.     E   
--5-----3--5--3---------|--0-----------------------|--0----3----2---------|
--------3----------3----|--1-----3--1--0-----0--3--|--1---------3------3--|
--------------4----4----|--0--------------2--------|--2-------------------|
-------------------5----|-----2--------0-----------|-------2----4---------|
-----3------------------|--3-----------------------|--0-------------------|
--3-----------5---------|--------------5-----------|------------0---------|


                                                           ^                    
                       |--3-|                                                   
  E  E  E  E  E  E  E  S S  S    E  E  E  E  E  E  Q       H        H           
--0--3--2-----0--3--2--0-2h-3-|--5-----3--5--7-----3----|--5------------------||
--------3--3--1---------------|--------3-----------3----|--5--------5---------||
--------------2---------------|-------------------------|--7--------6--------*||
--------0-----------0---------|-----------------0-------|--------------------*||
--0---------------------------|-----3-------------------|--0------------------||
------------------------------|--3-----------5----------|---------------------||


                                                                          ^     
  E  E  E  E  E  E  E  E     E  E  E  E  E  E  E  E     E  E  E  E  E  E  Q     
--5-----3--5--7-----3-----|--0--------0--3-----0-----|--------------0----------|
--------------------------|--------3-----1-----------|--3-----1--3--------1----|
-----------------------0--|-----0--------------0-----|--------0-----------0----|
-----------------0--------|--------------2--------2--|-----0-----------2--0----|
-----3--------------------|--3--------------3--------|-------------------------|
--3-----------5-----------|--------------------------|--0-----------2----------|


  H        E  E  E  E     E  E  E  E  E  E  E  E     E  E  E  E  E  E  E  E   
--------------------0--|--5-----3--5--7-----3-----|--0--------0--3-----0-----|
--------------0--1-----|--------------------------|--------3-----1-----------|
--2--------2-----------|-----------------------0--|-----0--------------0-----|
--2--------2-----2-----|-----------------0--------|--------------2--------2--|
--0--------3-----------|-----3--------------------|--3--------------3--------|
-----------------------|--3-----------5-----------|--------------------------|


  E  E  E  E  E  E  S  S S S    E  E  E  E  E  E  E  E   
--1-----------------1p-0---0-|--1-----------------------|
--------3-----3----------3---|--------3-----------3-----|
--------3-----3--------------|--------2-----------2-----|
-----3-----3-----3-----------|-----3-----3-----3-----3--|
--1-----------------1--------|--0-----------0-----------|
-----------------------------|--------------------------|


                                                   ^         ^          
  E  E  E  E  E  E  E  E     W                     Q    Q    Q.     E   
--------------------------|-------------------||---0----3----2---------|
--6-----6-----6-----6-----|-------------------||---1---------3------3--|
--5-----5-----5-----5-----|-------------------||*--2-------------------|
-----6-----6-----6-----6--|-------------------||*-------2----4---------|
--------------------------|-------------------||---0-------------------|
--6-----------------------|--3----------------||-------------0---------|


                                                  ^     
                       |--3-|                           
  E  E  E  E  E  E  E  S S  S    E  E  E  E  Q    Q     
--0--3--2-----0--3--2--0-2h-3-|--5-----3--5--3---------|
--------3--3--1---------------|--------3----------3----|
--------------2---------------|--------------4----4----|
--------0-----------0---------|-------------------5----|
--0---------------------------|-----3------------------|
------------------------------|--3-----------5---------|


                             ^         ^          
  E  E  E  E  E  E  E  E     Q    Q    Q.     E   
--0-----------------------|--0----3----2---------|
--1-----3--1--0-----0--3--|--1---------3------3--|
--0--------------2--------|--2-------------------|
-----2--------0-----------|-------2----4---------|
--3-----------------------|--0-------------------|
--------------5-----------|------------0---------|


                                                           ^                    
                       |--3-|                                                   
  E  E  E  E  E  E  E  S S  S    E  E  E  E  E  E  Q       H        H           
--0--3--2-----0--3--2--0-2h-3-|--5-----3--5--7-----3----|--5------------------||
--------3--3--1---------------|--------3-----------3----|--5--------5---------||
--------------2---------------|-------------------------|--7--------6--------*||
--------0-----------0---------|-----------------0-------|--------------------*||
--0---------------------------|-----3-------------------|--0------------------||
------------------------------|--3-----------5----------|---------------------||


                                                                          ^     
  E  E  E  E  E  E  E  E     E  E  E  E  E  E  E  E     E  E  E  E  E  E  Q     
--5-----3--5--7-----3-----|--0--------0--3-----0-----|--------------0----------|
--------------------------|--------3-----1-----------|--3-----1--3--------1----|
-----------------------0--|-----0--------------0-----|--------0-----------0----|
-----------------0--------|--------------2--------2--|-----0-----------2--0----|
-----3--------------------|--3--------------3--------|-------------------------|
--3-----------5-----------|--------------------------|--0-----------2----------|


  H        E  E  E  E     E  E  E  E  E  E  E  E     E  E  E  E  E  E  E  E   
--------------------0--|--5-----3--5--7-----3-----|--0--------0--3-----0-----|
--------------0--1-----|--------------------------|--------3-----1-----------|
--2--------2-----------|-----------------------0--|-----0--------------0-----|
--2--------2-----2-----|-----------------0--------|--------------2--------2--|
--0--------3-----------|-----3--------------------|--3--------------3--------|
-----------------------|--3-----------5-----------|--------------------------|


  E  E  E  E  E  E  S  S S S    E  E  E  E  E  E  E  E   
--1-----------------1p-0---0-|--1-----------------------|
--------3-----3----------3---|--------3-----------3-----|
--------3-----3--------------|--------2-----------2-----|
-----3-----3-----3-----------|-----3-----3-----3-----3--|
--1-----------------1--------|--0-----------0-----------|
-----------------------------|--------------------------|


                             ^                  
  E  E  E  E  E  E  E  E     W                  
--------------------------|-------------------||
--6-----6-----6-----6-----|--1----------------||
--5-----5-----5-----5-----|--0----------------||
-----6-----6-----6-----6--|-------------------||
--------------------------|-------------------||
--6-----------------------|--3----------------||




Duration Legend
---------------
W - whole
H - half
Q - quarter
E - 8th
S - 16th
T - 32nd
X - 64th
. - note dotted
|-n-|  - n-tuplets


Tablature Legend
----------------
L - tied note
x - dead note
g - grace note
(n) - ghost note
> - accentuded note
NH - natural harmonic
AH - artificial harmonic
TH - tapped harmonic
SH - semi harmonic
PH - pitch harmonic
h - hammer on
p - pull off
b - bend
br - bendRelease
pb - preBend
pbr - preBendRelease
brb - bendReleaseBend
\n/ - tremolo bar dip
\n - tremolo bar dive
-/n - tremolo bar Release up
/n\ - tremolo bar inverted dip
/n - tremolo bar return
-\n - tremolo bar Release down
S - shift slide
s - legato slide
/ -  slide into from below or out of upwards
\ -  slide into from above or out of downwards
~ - vibrato
W - wide vibrato
tr - trill
TP - tremolo picking
T - tapping
S - slap
P - pop
< - fade in
^ - brush up
v - brush down
Login or Register to remove this ad.

2 comments on Edgar And Mash

yes we like it :) ^^

yes we like it :) ^^

Amazing tab and very fun to

5

Amazing tab and very fun to play

Edit:
It's not the easiest tab, but its well worth it :)
https://soundcloud.com/mickegitarr/final-fantasy-vi-edgar-mash