Ads

Devil's Lab (Final Fantasy VI) Bass/Guitar Tab

Submitted: Aug 13, 2009 by auriplane (Last updated: Apr 06, 2010)

5
Average: 5 (4 votes)
Download | Listen
Game: Final Fantasy VI
Composer(s): Nobuo Uematsu
Style: 2 or more instruments, Transcription
Series: Final Fantasy

This song is also called Magitek Research Facility

AutoScroll: Slow | Medium | Fast
                     Final Fantasy VI - Devil's Lab GUITAR & BASS TAB
                                Composed by Nobuo Uematsu

                          Tabbed by Auriplane ([email protected])



This song has a trumpet, two violins, a bass, and percussion.  I tabbed these on guitar:

        1st Guitar: Trumpet part
        2nd Guitar: 1st Violin
        3rd Guitar: 2nd Violin

And the bass part on bass.  But if you're looking for a bass tab, I just included it here
for completeness' sake; you should definitely check out the bass tab someone else posted
on GameTabs a while ago, it was there first :-)



                                        Trumpet

     W                   W                     W                   W
E||-------------------|-------------------||--------------------|-------------------|
B||-------------------|-------------------||--------------------|-------------------|
G||-------------------|-------------------||*-------------------|-------------------|
D||-------------------|-------------------||*-------------------|-------------------|
A||-------------------|-------------------||--------------------|-------------------|
E||-------------------|-------------------||--------------------|-------------------|


  W                   W                   S S S S E  E  E  E  E  E     E  E  Q    E  E  Q
-------------------|-------------------|----------------------------|--7--6--L---------------|
-------------------|-------------------|----------9--8-----------5--|-------------8--9--L----|
-------------------|-------------------|--6---6-8-------9--5--6-----|------------------------|
-------------------|-------------------|----6-----------------------|------------------------|
-------------------|-------------------|----------------------------|------------------------|
-------------------|-------------------|----------------------------|------------------------|


  S S S S E  E  E  E  E  E     W                    S S S S E  E  E  E  E  E
----------------------------|--------------------|----------------------------|
--7-----4-5--4--------------|--------------------|----------9--8-----------5--|
----4-6---------6--4--3-----|--------------------|--6---6-8-------9--5--6-----|
-------------------------5--|--6~----------------|----6-----------------------|
----------------------------|--------------------|----------------------------|
----------------------------|--------------------|----------------------------|


  E  E  Q    E  E  Q       E  E  E.  S E  E  E  E     W
--7--6--L---------------|--------4-----------------|--------------------|
-------------8--9--L----|--5--5------5-7--7--5--4--|--------------------|
------------------------|--------------------------|--6~----------------|
------------------------|--------------------------|--------------------|
------------------------|--------------------------|--------------------|
------------------------|--------------------------|--------------------|


  S S S S E  S S S S E  Q       W                   W                   W
----------4------------------|-------------------|-------------------|-------------------|
--5---5-7----7-5-4-5---------|-------------------|-------------------|-------------------|
----4----------------6--6----|-------------------|-------------------|-------------------|
-----------------------------|-------------------|-------------------|-------------------|
-----------------------------|-------------------|-------------------|-------------------|
-----------------------------|-------------------|-------------------|-------------------|


  H.           S S S S    S S S S Q    E  S S S S S S    W                    W
-----------------------|----------------------------6-|--7~----------------|--------------------||
---------------5-------|----------9----L------9---9---|--------------------|--------------------||
-----------------8-7-6-|--5---5-8---------5-8---8-----|--------------------|-------------------*||
-----------------------|----6-------------------------|--------------------|-------------------*||
-----------------------|------------------------------|--------------------|--------------------||
-----------------------|------------------------------|--------------------|--------------------||




                                        First Violin



     W                   W                     W                   W
E||-------------------|-------------------||--------------------|-------------------|
B||-------------------|-------------------||--------------------|-------------------|
G||-------------------|-------------------||*-------------------|-------------------|
D||-------------------|-------------------||*-------------------|-------------------|
A||-------------------|-------------------||--------------------|-------------------|
E||-------------------|-------------------||--------------------|-------------------|


  W                   W                   S S S S E  Q    S S E  E     Q     E   E  Q     E   E
-------------------|-------------------|--0-2-0-2-0-------0-2-4--0--|----------------------------|
-------------------|-------------------|----------------------------|-------12--11---------------|
-------------------|-------------------|----------------------------|--------------------12--13--|
-------------------|-------------------|----------------------------|----------------------------|
-------------------|-------------------|----------------------------|----------------------------|
-------------------|-------------------|----------------------------|----------------------------|


   Q     Q     Q     Q       E   S  S  S S  S  S  S S  S  S  S  S  S  S
--------------------14----|-----12-14-12---12-14-12---12-14-16-14-12----|
--------12----14----------|------------------------------------------16-|
--13----------------------|---------------------------------------------|
--------------------------|---------------------------------------------|
--------------------------|---------------------------------------------|
--------------------------|---------------------------------------------|


  S S S S E  Q    S S E  E     Q     E   E  Q     E   E      Q     Q     Q     Q
--0-2-0-2-0-------0-2-4--0--|----------------------------|--------------------14----|
----------------------------|-------12--11---------------|--------12----14----------|
----------------------------|--------------------12--13--|--13----------------------|
----------------------------|----------------------------|--------------------------|
----------------------------|----------------------------|--------------------------|
----------------------------|----------------------------|--------------------------|


  E   S  S  S S  S  S  S S  S  S  S  S  S  S     Q     Q     Q     Q
-----12-14-12---12-14-12---12-14-16-14-12----|--12----------------14----|
------------------------------------------16-|--------12----14----------|
---------------------------------------------|--------------------------|
---------------------------------------------|--------------------------|
---------------------------------------------|--------------------------|
---------------------------------------------|--------------------------|


   E   S  S  E   E   E   E   E   E      E   E   E   E   H
--------------------14--------------|----------------------------|
--14--16-16-17--16------17--16--17--|--14--17--16--17--14--------|
------------------------------------|----------------------------|
------------------------------------|----------------------------|
------------------------------------|----------------------------|
------------------------------------|----------------------------|


   E   S  S  E   E   E   E   E   E      E   E   E   E   Q     S  S  S  S
------14-14-15--14--17--15--14--15--|------15--14--15--------------------|
--17--------------------------------|--17--------------17----17-16-15-14-|
------------------------------------|------------------------------------|
------------------------------------|------------------------------------|
------------------------------------|------------------------------------|
------------------------------------|------------------------------------|


   E   E   E   E   E   E   E   E      H         H            H         H
----------------------------------|------------12--------|--11--------10---------||
--13--13--14--14--16--16--14--14--|--12------------------|-----------------------||
----------------------------------|----------------------|----------------------*||
----------------------------------|----------------------|----------------------*||
----------------------------------|----------------------|-----------------------||
----------------------------------|----------------------|-----------------------||




                                    Second Violin



     W                   W                     W                   W
E||-------------------|-------------------||--------------------|-------------------|
B||-------------------|-------------------||--------------------|-------------------|
G||-------------------|-------------------||*-------------------|-------------------|
D||-------------------|-------------------||*-------------------|-------------------|
A||-------------------|-------------------||--------------------|-------------------|
E||-------------------|-------------------||--------------------|-------------------|


  W                   W                    S  S  S  S  E  Q     S  S  E   E
-------------------|-------------------|-------------------------------------|
-------------------|-------------------|-------------------------------------|
-------------------|-------------------|-------------------------------------|
-------------------|-------------------|--11-13-11-13-11-------11-13-14--10--|
-------------------|-------------------|-------------------------------------|
-------------------|-------------------|-------------------------------------|


  Q    E  E  Q    E  E     Q    Q     Q    Q       E  S  S S S S  S S S S  S  S  S S  S
-------0--0-------0--0--|--0---------------9----|-----9-11-9---9-11-9---9-11-12-11-9----|
------------------------|-------9----11---------|------------------------------------13-|
------------------------|-----------------------|---------------------------------------|
------------------------|-----------------------|---------------------------------------|
------------------------|-----------------------|---------------------------------------|
------------------------|-----------------------|---------------------------------------|


   S  S  S  S  E  Q     S  S  E   E     Q    E  E  Q    E  E     Q    Q     Q    Q
-------------------------------------|-------0--0-------0--0--|--0---------------9----|
-------------------------------------|------------------------|-------9----11---------|
-------------------------------------|------------------------|-----------------------|
--11-13-11-13-11-------11-13-14--10--|------------------------|-----------------------|
-------------------------------------|------------------------|-----------------------|
-------------------------------------|------------------------|-----------------------|


  E  S  S S S S  S S S S  S  S  S S  S    H         Q     Q
-----9-11-9---9-11-9---9-11-12-11-9----|-----------------------|
------------------------------------13-|--9--------------11----|
---------------------------------------|-----------11----------|
---------------------------------------|-----------------------|
---------------------------------------|-----------------------|
---------------------------------------|-----------------------|


   E   S  S  E   E   E   E   E   E      E   E   E   E   H
--------------------11--------------|----------------------------|
--10--12-12-14--12------14--12--14--|--10--14--12--14--10--------|
------------------------------------|----------------------------|
------------------------------------|----------------------------|
------------------------------------|----------------------------|
------------------------------------|----------------------------|


   E   S  S  E   E   E   E   E   E      E   E   E   E   Q     S  S  S  S
------10-10-12--10--14--12--10--12--|------12--10--12--------------------|
--13--------------------------------|--13--------------13----13-12-11-10-|
------------------------------------|------------------------------------|
------------------------------------|------------------------------------|
------------------------------------|------------------------------------|
------------------------------------|------------------------------------|


   E   E   E   E   E   E   E   E      H         H            W
----------------------------------|----------------------|---------------------||
----------11--11--13--13--11--11--|------------10--------|--12-----------------||
--13--13--------------------------|--13------------------|--------------------*||
----------------------------------|----------------------|--------------------*||
----------------------------------|----------------------|---------------------||
----------------------------------|----------------------|---------------------||




                                            Bass



     W                   W                     E  E  E.  S S S S S E  E     E  E  E.  S E  E  Q
G||-------------------|-------------------||-----------------------1-----|-------------------------|
D||-------------------|-------------------||*--------2-------1-2-4-------|-------------------------|
A||-------------------|-------------------||*--4--4------3-4----------3--|--4--4------3-4--4-------|
E||-------------------|-------------------||-----------------------------|-------------------------|


  E  E  E.  S E  E  E  S S    E  E  E.  S E  E  Q       E  E  E.  S S S S S E  E
--------1------------------|-------------------------|----------------------1-----|
--2--2------2-4--4---------|-------------------------|--------2-------1-2-4-------|
--------------------1--2-3-|--4--4------3-4--4-------|--4--4------3-4----------3--|
---------------------------|-------------------------|----------------------------|


  E  E  E.  S E  E  Q       E  E  E.  S E  E  E  S S    E  E  E.  S E  E  Q
-------------------------|--------1------------------|-------------------------|
-------------------------|--2--2------2-4--4---------|-------------------------|
--4--4------3-4--4-------|--------------------1--2-3-|--4--4------3-4--4-------|
-------------------------|---------------------------|-------------------------|


  E  E  E.  S S S S S E  E     E  E  E.  S E  E  Q       E  E  E.  S E  E  E  S S
----------------------1-----|-------------------------|--------1------------------|
--------2-------1-2-4-------|-------------------------|--2--2------2-4--4---------|
--4--4------3-4----------3--|--4--4------3-4--4-------|--------------------1--2-3-|
----------------------------|-------------------------|---------------------------|


  E  E  E.  S E  E  Q       E  E  E.  S E  S S S E.     E  E  Q    E  E  Q
-------------------------|--------1------------------|------------------------|
-------------------------|--2--2------2-4------4-6---|--7--7-------7--7-------|
--4--4------3-4--4-------|-----------------4-4-------|------------------------|
-------------------------|---------------------------|--------5----------5----|


  E  E  Q    E  E  E  E     E  E  Q    E  E  Q       E  E  Q    E  E  S S S S
-------------------------|--------5----------5----|--------5----------5-4-3-2-|
--7--7-------7--7--------|------------------------|---------------------------|
-------------------------|--3--3-------3--3-------|--3--3-------3--3----------|
--------5----------5--7--|------------------------|---------------------------|


  E  E  Q    E  E  Q       E  E  Q    E  E  Q       E  E  Q    E  E  E  E
--1--1------------------|------------------------|--------------------------||
-------------4--4-------|--2--2-------2--2-------|--2--2----------2--1--0--*||
------------------------|------------------------|-------------------------*||
------------------------|------------------------|--------------------------||


Login or Register to remove this ad.

2 comments on Devil's Lab

Excellent tab.

5

Excellent tab.

Damn...

5

Very cool and a lot better than mine... you did the bass too...