Ads

The Decisive Battle (Final Fantasy VI) Guitar Tab

Submitted: Nov 23, 2011 by BacardiBreezer

3.5
Average: 3.5 (2 votes)
Download | Listen
Game: Final Fantasy VI
Composer(s): Nobuo Uematsu
Style: Alternate picking, Transcription
Series: Final Fantasy

AutoScroll: Slow | Medium | Fast
The Decisive Battle (Boss Theme)
Final Fantasy 6
Composer: Nobuo Uematsu
Tabbed by Bacardibreezer
11/20/11


e|--12-------13-------14-------13-------12-----------|
B|-----13-------13-------13-------13-------13-12-15--|
G|--------14-------14-------14-------14--------------|
D|---------------------------------------------------|
A|---------------------------------------------------|
E|---------------------------------------------------| x4

e|-----12-10----------10------------|
B|--10-------13-12-13----12----10~--|
G|--------------------------12------|
D|----------------------------------|
A|----------------------------------|
E|----------------------------------| x2

e|----------------------------------|------------------|-------------------------------|
B|----10-12-13-12-10----------------|------------------|-------------------10----9-----|
G|--9----------------9--------------|-------------9----|-9----9-10------10-------------|
D|---------------------10-9--10-----|-10-9-10-12----10-|---12------9-10-------12---12--|
A|-------------------------------12-|------------------|-------------------------------|
E|----------------------------------|------------------|-------------------------------|

e|----------------------------------|------------------|-------------------------------|
B|--10---13-12-10-------------------|------------------|-------------------10----10-9--|
G|-----9----------9-----------------|-------------9----|-9----9-10----12-9----10-------|
D|------------------10----9--10-----|-10-9-10-12----10-|---12------12------------------|
A|---------------------12--------12-|------------------|-------------------------------|
E|----------------------------------|------------------|-------------------------------|

e|--------------------------------15-----|-----------------------------------|
B|--18~---------------15--17--18---------|----------18-----------------------|
G|--------17--16--17------------------17-|--16--14------17--16--14------14~--|
D|---------------------------------------|--------------------------17-------|
A|---------------------------------------|-----------------------------------|
E|---------------------------------------|-----------------------------------|

e|-------------------|--------------------------15----15-17-/20~--|--17-15--------------------|
B|-----------17--18~-|--------------15--17--18-----19-------------|--------18-----------------|
G|--14-16-17---------|--17--16--17--------------------------------|-----------17-14-----------|
D|-------------------|--------------------------------------------|-----------------17-15-----|
A|-------------------|--------------------------------------------|-----------------------15~-|
E|-------------------|--------------------------------------------|---------------------------|

e|---------------------------------|------------------|
B|---------------------------------|--6---------------|
G|----------------12-------9-12--9-|----9-8-7-6-------|
D|--9-12---9---12------12----------|------------10-9--|
A|---------------------------------|------------------|
E|---------------------------------|------------------|




Login or Register to remove this ad.