The Day After (Hashel Version) (Final Fantasy VI) Bass/Guitar Tab

Submitted: Jul 09, 2018 by hashel (Last updated: Jul 09, 2018)

0
Download | Listen
Game: Final Fantasy VI
Composer(s): Nobuo Uematsu
Style: 2 or more instruments, Arrangement
Series: Final Fantasy

Click here for a video example.

AutoScroll: Slow | Medium | Fast
WARNING: This is a personal arrangement, the goal was to add something new to the song. However bunch of elements are still from the original, 
like the main melody or some arpeggios.
Some bars might sound "empty" those were to let me improve a solo, so you could also use that as backing and create your own solo ;)

Tempo = 86

Lead Guitar (1st part could be played 1 octave higher, depending on the feeling you prefer)

E |----------------|----------------|----------------|----------------|
B |----------------|----------------|----------------|----------------|
G |----------------|----------------|----------------|----------------|
D |----------------|----------------|----------------|----------------|
A |----------------|----------------|----------------|----------------|
E |----------------|----------------|----------------|----------------|


----------------|----------------------------------------------------|
----------------|----------------------------------------------------|
----------------|--------5-----4-----5--2----------------------------|
----------------|--------------------------------------------2-------|
----------------|----------------------------------------------------|
----------------|----------------------------------------------------|


----------------------------|
----------------------------|
-----------4----------------|
--1-----4-------------------|
----------------------------|
----------------------------|


----------------------------------------------------|
----------------------------------------------------|
--------3-----2-----3-------------------------------|
-----------------------3----------------------------|
--------------------------------------------5-------|
----------------------------------------------------|


----------------------------|
----------------------------|
-----------2----------------|
--------2-------------------|
--4-------------------------|
----------------------------|


----------------------------------------------------|
----------------------------------------------------|
--------5-----4-----5--2----------------------------|
--------------------------------------------2-------|
----------------------------------------------------|
----------------------------------------------------|


----------------------------|
----------------------------|
-----------4----------------|
--1-----4-------------------|
----------------------------|
----------------------------|


----------------------------------------------------|----------------|
----------------------------------------------------|----------------|
--------3-----2-----3-------------------------------|----------------|
-----------------------3----------------------------|----------------|
--------------------------------------------4-------|--5-------------|
----------------------------------------------------|----------------|


----------------------------------------------------|
----------------------------------------------------|
--------5-----4-----5--2----------------------------|
--------------------------------------------2-------|
----------------------------------------------------|
----------------------------------------------------|


----------------------------|
----------------------------|
-----------4----------------|
--1-----4-------------------|
----------------------------|
----------------------------|


----------------------------------------------------|
----------------------------------------------------|
--------3-----2-----3-------------------------------|
-----------------------3----------------------------|
--------------------------------------------5-------|
----------------------------------------------------|


----------------------------|
----------------------------|
-----------2----------------|
--------2-------------------|
--4-------------------------|
----------------------------|


----------------------------------------------------|
----------------------------------------------------|
--------5-----4-----5--2----------------------------|
--------------------------------------------2-------|
----------------------------------------------------|
----------------------------------------------------|


----------------------------|
----------------------------|
-----------4----------------|
--1-----4-------------------|
----------------------------|
----------------------------|


----------------------------------------------------|----------------|
----------------------------------------------------|----------------|
--------3-----2-----3-------------------------------|----------------|
-----------------------3----------------------------|----------------|
--------------------------------------------4-------|--5-------------|
----------------------------------------------------|----------------|


----------------|----------------|----------------|----------------|
----------------|----------------|----------------|----------------|
----------------|----------------|----------------|----------------|
----------------|----------------|----------------|----------------|
----------------|----------------|----------------|----------------|
----------------|----------------|----------------|----------------|


----------------|----------------|----------------|----------------|
----------------|----------------|----------------|----------------|
----------------|----------------|----------------|----------------|
----------------|----------------|----------------|----------------|
----------------|----------------|----------------|----------------|
----------------|----------------|----------------|----------------|


----------------|----------------------------------------------------|
--13-------12---|--13-------10-10----------------------10----12------|
----------------|----------------------------------------------------|
----------------|----------------------------------------------------|
----------------|----------------------------------------------------|
----------------|----------------------------------------------------|


----------------------------------------------------|
--13----------15----------13----15-13-12----10------|
----------------------------------------------------|
----------------------------------------------------|
----------------------------------------------------|
----------------------------------------------------|


----------------------------|----------------|----------------------------|
--13-10---------------------|--13-------12---|--13----10----------10-12---|
----------------------------|----------------|----------------------------|
----------------------------|----------------|----------------------------|
----------------------------|----------------|----------------------------|
----------------------------|----------------|----------------------------|


----------------------------------------------------|
--13----------15----------13----15-13-12----10------|
----------------------------------------------------|
----------------------------------------------------|
----------------------------------------------------|
----------------------------------------------------|


----------------------------|--12------------|
--13-10---------------------|-----------15---|
----------------------------|----------------|
----------------------------|----------------|
----------------------------|----------------|
----------------------------|----------------|


--12------------------------------------------------|
-----------15-13----------------------13----15------|
----------------------------------------------------|
----------------------------------------------------|
----------------------------------------------------|
----------------------------------------------------|


--12----------15----------14----15-14-12----10------|
----------------------------------------------------|
----------------------------------------------------|
----------------------------------------------------|
----------------------------------------------------|
----------------------------------------------------|


--12----------12------------------------------------|----------------|
--------------------12-10---------------------------|----------------|
--------------------------13------------------------|----------------|
----------------------------------------------------|----------------|
----------------------------------------------------|----------------|
----------------------------------------------------|----------------|


----------------|----------------|----------------|----------------|
----------------|----------------|----------------|----------------|
----------------|----------------|----------------|----------------|
----------------|----------------|----------------|----------------|
----------------|----------------|----------------|----------------|
----------------|----------------|----------------|----------------|


----------------|----------------|----------------|----------------|
----------------|----------------|----------------|----------------|
----------------|----------------|----------------|----------------|
----------------|----------------|----------------|----------------|
----------------|----------------|----------------|----------------|
----------------|----------------|----------------|----------------|


----------------|----------------|----------------|----------------|
----------------|----------------|----------------|--13-------12---|
----------------|----------------|----------------|----------------|
----------------|----------------|----------------|----------------|
----------------|----------------|----------------|----------------|
----------------|----------------|----------------|----------------|


----------------------------|
--13----10----------10-12---|
----------------------------|
----------------------------|
----------------------------|
----------------------------|


----------------------------------------------------|
--13----------15----------13----15-13-12----10------|
----------------------------------------------------|
----------------------------------------------------|
----------------------------------------------------|
----------------------------------------------------|


----------------------------|--12------------|
--13-10---------------------|-----------15---|
----------------------------|----------------|
----------------------------|----------------|
----------------------------|----------------|
----------------------------|----------------|


--12------------------------------------------------|
-----------15-13----------------------13----15------|
----------------------------------------------------|
----------------------------------------------------|
----------------------------------------------------|
----------------------------------------------------|


--12----------15----------14----15-14-12----10------|
----------------------------------------------------|
----------------------------------------------------|
----------------------------------------------------|
----------------------------------------------------|
----------------------------------------------------|


--12----------12------------------------------------|----------------|
--------------------12-10---------------------------|----------------|
--------------------------13------------------------|----------------|
----------------------------------------------------|----------------|
----------------------------------------------------|----------------|
----------------------------------------------------|----------------|


----------------||
----------------||
----------------||
----------------||
----------------||
----------------||


Guitar Arpeggios

E |----------------|----------------|----------------|----------------|
B |----------------|----------------|----------------|----------------|
G |----------------|----------------|----------------|----------------|
D |----------------|----------------|----------------|----------------|
A |----------------|----------------|----------------|----------------|
E |----------------|----------------|----------------|----------------|


----------------|--------------12------------|--------------14------------|
----------------|-----------13----13---------|-----------16----16---------|
----------------|--------14----------14------|--------16----------16------|
----------------|-----14----------------14---|-----16----------------16---|
----------------|--12------------------------|--12------------------------|
----------------|----------------------------|----------------------------|


--------------13------------|--------------12------------|
-----------15----15---------|-----------14----14---------|
--------15----------15------|--------14----------14------|
-----15----------------15---|-----14----------------14---|
--13------------------------|--12------------------------|
----------------------------|----------------------------|


--------------12------------|--------------14------------|
-----------13----13---------|-----------16----16---------|
--------14----------14------|--------16----------16------|
-----14----------------14---|-----16----------------16---|
--12------------------------|--12------------------------|
----------------------------|----------------------------|


--------------13------------|--------------12------------|
-----------15----15---------|-----------14----14---------|
--------15----------15------|--------14----------14------|
-----15----------------15---|-----14----------------14---|
--13------------------------|--12------------------------|
----------------------------|----------------------------|


--------------12------------|--------------14------------|
-----------13----13---------|-----------16----16---------|
--------14----------14------|--------16----------16------|
-----14----------------14---|-----16----------------16---|
--12------------------------|--12------------------------|
----------------------------|----------------------------|


--------------13------------|--------------12------------|
-----------15----15---------|-----------14----14---------|
--------15----------15------|--------14----------14------|
-----15----------------15---|-----14----------------14---|
--13------------------------|--12------------------------|
----------------------------|----------------------------|


--------------12------------|--------------14------------|
-----------13----13---------|-----------16----16---------|
--------14----------14------|--------16----------16------|
-----14----------------14---|-----16----------------16---|
--12------------------------|--12------------------------|
----------------------------|----------------------------|


--------------13------------|--------------12------------|
-----------15----15---------|-----------14----14---------|
--------15----------15------|--------14----------14------|
-----15----------------15---|-----14----------------14---|
--13------------------------|--12------------------------|
----------------------------|----------------------------|


----------------------------|----------------------------|
-----0-----0-----0----------|-----0-----0-----0----------|
--------------2-----2-------|--------------2-----2-------|
----------------------------|----------------------------|
--0--------------------0----|--3--------------------3----|
----------------------------|----------------------------|


----------------------------|----------------------------|
-----0-----0-----0----------|-----0-----0-----0----------|
--------------2-----2-------|--------------2-----2-------|
----------------------------|----------------------------|
--2--------------------2----|--1--------------------1----|
----------------------------|----------------------------|


----------------------------|----------------------------|
-----0-----0-----0----------|-----0-----0-----0----------|
--------------2-----2-------|--------------2-----2-------|
----------------------------|----------------------------|
--0--------------------0----|--3--------------------3----|
----------------------------|----------------------------|


----------------------------|----------------------------|----------------|
-----0-----0-----0----------|-----0-----0-----0----------|----------------|
--------------2-----2-------|--------------2-----2-------|----------------|
----------------------------|----------------------------|----------------|
--2--------------------2----|--1--------------------1----|----------------|
----------------------------|----------------------------|----------------|


----------------|----------------|----------------|----------------|
----------------|----------------|----------------|----------------|
----------------|----------------|----------------|----------------|
----------------|----------------|----------------|----------------|
----------------|----------------|----------------|----------------|
----------------|----------------|----------------|----------------|


----------------|----------------|----------------|----------------|
----------------|----------------|----------------|----------------|
----------------|----------------|----------------|----------------|
----------------|----------------|----------------|----------------|
----------------|----------------|----------------|----------------|
----------------|----------------|----------------|----------------|


----------------|----------------|----------------|--------------0-------------|
----------------|----------------|----------------|-----------------1----------|
----------------|----------------|----------------|--------2-----------2-------|
----------------|----------------|----------------|-----2-----2-----------2----|
----------------|----------------|----------------|--0-------------------------|
----------------|----------------|----------------|----------------------------|


----------------------------|----------------------------|
-----------4L-4-------------|----------------------------|
--------4-------------------|--------3-------------------|
-----4----------------------|-----3-----3-----7----------|
--2-------------------------|--1-----------5--------6----|
----------------------------|--------------------4-------|


--------------0-------------|--------------0-------------|
-----------1----------------|-----------------1----------|
--------2-------------------|--------2-----------2-------|
-----2----------------------|-----2-----2-----------2----|
--0-------------------------|--0-------------------------|
----------------------------|----------------------------|


----------------------------|----------------------------|
-----------4L-4-------------|----------------------------|
--------4-------------------|--------3-------------------|
-----4----------------------|-----3-----3-----7----------|
--2-------------------------|--1-----------5--------6----|
----------------------------|--------------------4-------|


--------------0-------------|----------------|----------------------------|
-----------1----------------|----------------|-----------------8----------|
--------2-------------------|--9-------------|--9L----------9-----9-------|
-----2----------------------|-----------9----|-----------------------9----|
--0-------------------------|----------------|----------------------------|
----------------------------|----------------|----------------------------|


----------------------------|----------------------------|
--------------8-------------|----------------------------|
-----------7-----------7----|--9-----------9-------------|
--------7-------------------|-----------------9--6-------|
--7--10---------------------|-----------------------7----|
----------------------------|----------------------------|


----------------------------|----------------------------|
-----0-----0-----0----------|-----0-----0-----0----------|
--------------2-----2-------|--------------2-----2-------|
-----------------------2----|-----------------------2----|
--0-------------------------|--0-------------------------|
----------------------------|----------------------------|


----------------------------|----------------------------|
-----0-----0-----0----------|-----0-----0-----0----------|
--------------2-----2-------|--------------2-----2-------|
-----------------------2----|-----------------------2----|
--0-------------------------|--0-------------------------|
----------------------------|----------------------------|


----------------------------|----------------------------|
-----1-----1--0--1----------|-----1-----1--0--1----------|
--------------------0-------|--------------------0-------|
-----------------------2----|-----------------------2----|
--3-------------------------|--3-------------------------|
----------------------------|----------------------------|


----------------------------|----------------------------|-------|
-----1-----1--0--1----------|-----3-----3--0--3--0-------|-------|
--------------------2-------|-----------------------1----|--2----|
-----------------------4----|--2-------------------------|-------|
--3-------------------------|----------------------------|-------|
----------------------------|----------------------------|-------|


----------------||
----------------||
----------------||
----------------||
----------------||
----------------||


Bass

G |----------------|----------------------------|----------------------------|
D |----------------|-----------2-----------2----|--1-------------------------|
A |----------------|--0-------------------------|-----------2----------------|
E |----------------|----------------------------|----------------------------|


----------------------------|----------------------------|
-----------3----------------|-----------2----------------|
--1--------------------5----|--4-------------------------|
----------------------------|----------------------------|


----------------------------|----------------------------|
-----------2-----------2----|--1-------------------------|
--0-------------------------|-----------2----------------|
----------------------------|----------------------------|


----------------------------|----------------------------|
-----------3----------------|----------------------------|
--1--------------------5----|--4--------0----------------|
----------------------------|----------------------------|


----------------------------|----------------------------|
-----------2-----------2----|--1-------------------------|
--0-------------------------|-----------2----------------|
----------------------------|----------------------------|


----------------------------|----------------------------|
-----------3----------------|----------------------------|
--1--------------------4----|--5--------------5--3--2----|
----------------------------|----------------------------|


----------------------------|----------------------------|
-----------2-----------2----|--1-------------------------|
--0-------------------------|-----------2----------------|
----------------------------|----------------------------|


----------------------------|----------------------------|
-----------3----------------|----------------------------|
--1--------------------5----|--4--------0----------------|
----------------------------|----------------------------|


----------------------------|----------------------------|
-----------2-----------2----|--1-------------------------|
--0-------------------------|-----------2----------------|
----------------------------|----------------------------|


----------------------------|----------------------------|
-----------1----------------|----------------------------|
--0--------------------4----|--5--------------5--3--2----|
----------------------------|----------------------------|


----------------------------------------------------|
----------------------------------------------------|
--0-----0-----------------------------------0-------|
----------------------------------------------------|


----------------------------------------------------|
----------------------------------------------------|
--3-----3-----------------------------------3-------|
----------------------------------------------------|


----------------------------------------------------|
----------------------------------------------------|
--2-----2-----------------------------------2-------|
----------------------------------------------------|


----------------------------------------------------|
----------------------------------------------------|
--1-----1-----------------------------------1-------|
----------------------------------------------------|


----------------------------------------------------|
----------------------------------------------------|
--0-----0-----------------------------------0-------|
----------------------------------------------------|


----------------------------------------------------|
----------------------------------------------------|
--3-----3-----------------------------------3-------|
----------------------------------------------------|


----------------------------------------------------|
----------------------------------------------------|
--2-----2-----------------------------------2-------|
----------------------------------------------------|


----------------------------------------------------|
----------------------------------------------------|
--1-----1-----------------------------------1-------|
----------------------------------------------------|


----------------------------|
----------------------------|
--3--3-----------------2----|
----------------------------|


----------------------------------------------------|
----------------------------------------------------|
--0-----------7-------------------------------------|
-----------0--------5-----------------0-------------|


----------------------------|----------------------------|
----------------------------|----------------------------|
--3--3--------3-----2-------|--0-----------------0L-0----|
----------------------------|----------------------------|


----------------------------|
----------------------------|
--3--3-----------------2----|
----------------------------|


----------------------------------------------------|
----------------------------------------------------|
--0-----------7-------------------------------------|
-----------0--------5-----------------0-------------|


----------------------------|----------------------------|
----------------------------|----------------------------|
--3--3--------3-----2-------|--0--------------5--3-------|
----------------------------|-----------------------4----|


----------------------------|
----------------------------|
--3--3-----------------2----|
----------------------------|


----------------------------------------------------|
--2-------------------------------------------------|
-----------3--3-------------------------------------|
--------------------------------------3-------------|


----------------------------|----------|----------------------------|
----------------------------|----------|----------------------------|
--3--3-----------2----------|----------|--0--0-----0--3--0--3-------|
--------------------3--0----|--5--0----|----------------------------|


--------------4-------------|----------------------------|
-----------------4----------|----------------------------|
--2-----------------2--0----|--1--1--------5-------------|
----------------------------|--------------------4-------|


----------------------------|----------------------------|
----------------------------|----------------------------|
-----------------0--3--5----|--0--0-----0--3--0--3-------|
--5-------------------------|----------------------------|


--------------4-------------|----------------------------|
-----------------4----------|----------------------------|
--2-----------------2--0----|--1--1--------5-------------|
----------------------------|--------------------4-------|


----------------------------|----------------|----------------------------|
----------------------------|----------------|----------------------------|
-----------------0--3--5----|--3-------------|--3-----------------3--5----|
--5-------------------------|-----------3----|-----------------3----------|


----------------------------|----------------------------|
----------------------------|--------------2-------------|
--------------5-------------|-----------------------5----|
--0--------5-----------5----|--0-------------------------|


----------------------------|
----------------------------|
--3--3-----------------2----|
----------------------------|


----------------------------------------------------|
----------------------------------------------------|
--0-----------7-------------------------------------|
-----------0--------5-----------------0-------------|


----------------------------|----------------------------|
----------------------------|----------------------------|
--3--3--------3-----2-------|--0--------------5--3-------|
----------------------------|-----------------------4----|


----------------------------|
----------------------------|
--3--3-----------------2----|
----------------------------|


----------------------------------------------------|
--2-------------------------------------------------|
-----------3--3-------------------------------------|
--------------------------------------3-------------|


----------------------------|----------------------------|-------|
----------------------------|----------------------------|-------|
--3--3-----------2----------|-----------------5----------|-------|
--------------------3--0----|--5-----------------3--5----|--5----|


----------------||
----------------||
----------------||
----------------||
Login or Register to remove this ad.