Dark World (Final Fantasy VI) Bass/Guitar Tab

Submitted: Nov 24, 2013 by hashel

0
Download | Listen
Game: Final Fantasy VI
Composer(s): Nobuo Uematsu
Style: 2 or more instruments, Arrangement, Transcription
Series: Final Fantasy

Click here for a video example.

AutoScroll: Slow | Medium | Fast
Hello :) This is my personal versio of the sond, i added a final part with electric guitar

Title: Dark World
Artist: Nobuo Uematsu
Album: FFVI OST
Tabber: Hashel05
Tempo = 68

Melody



E |----|----|----|----|----|----|----|----|----|--14L--|
B |----|----|----|----|----|----|----|----|----|-------|
G |----|----|----|----|----|----|----|----|----|-------|
D |----|----|----|----|----|----|----|----|----|-------|
A |----|----|----|----|----|----|----|----|----|-------|
E |----|----|----|----|----|----|----|----|----|-------|


--14-------------------14---|--19-14L--|--14-------------------14---|
--------------15----17------|----------|-----------------15-17------|
----------------------------|----------|----------------------------|
----------------------------|----------|----------------------------|
----------------------------|----------|----------------------------|
----------------------------|----------|----------------------------|


--19----------20-17L--------|--17---|--19----------20-17L--------|
----------------------------|-------|----------------------------|
----------------------------|-------|----------------------------|
----------------------------|-------|----------------------------|
----------------------------|-------|----------------------------|
----------------------------|-------|----------------------------|


--17----------------19----------17------|-------|----|----|----|
-----------------------------------20---|--19---|----|----|----|
----------------------------------------|-------|----|----|----|
----------------------------------------|-------|----|----|----|
----------------------------------------|-------|----|----|----|
----------------------------------------|-------|----|----|----|


----------------------------|-------|----------------------------|
--------------------10------|--12---|--------------------10------|
--------9--11-12------------|-------|--------9--11-12------------|
----------------------------|-------|----------------------------|
----------------------------|-------|----------------------------|
----------------------------|-------|----------------------------|


----------------------------|----------|-------|-------|-------|--14L--|
--11L---------11-11-10------|----------|-------|-------|-------|-------|
-----------------------12---|--9-------|-------|-------|-------|-------|
----------------------------|-----12L--|--12---|--12L--|--12---|-------|
----------------------------|----------|-------|-------|-------|-------|
----------------------------|----------|-------|-------|-------|-------|


--14-------------------14---|--19-14L--|--14-------------------14---|
--------------15----17------|----------|-----------------15-17------|
----------------------------|----------|----------------------------|
----------------------------|----------|----------------------------|
----------------------------|----------|----------------------------|
----------------------------|----------|----------------------------|


--19----------20-17L--------|--17---|--19----------20-17L--------|
----------------------------|-------|----------------------------|
----------------------------|-------|----------------------------|
----------------------------|-------|----------------------------|
----------------------------|-------|----------------------------|
----------------------------|-------|----------------------------|


--17----------------19----------17------|-------|----|----|----|
-----------------------------------20---|--19---|----|----|----|
----------------------------------------|-------|----|----|----|
----------------------------------------|-------|----|----|----|
----------------------------------------|-------|----|----|----|
----------------------------------------|-------|----|----|----|


----------------------------|-------|----------------------------|
--------------------10------|--12---|--------------------10------|
--------9--11-12------------|-------|--------9--11-12------------|
----------------------------|-------|----------------------------|
----------------------------|-------|----------------------------|
----------------------------|-------|----------------------------|


----------------------------|----------|-------|-------|-------|----|----|----|
--11L---------11-11-10------|----------|-------|-------|-------|----|----|----|
-----------------------12---|--9-------|-------|-------|-------|----|----|----|
----------------------------|-----12L--|--12---|--12L--|--12---|----|----|----|
----------------------------|----------|-------|-------|-------|----|----|----|
----------------------------|----------|-------|-------|-------|----|----|----|


----|----|----|----|----|----|----|----|----|----|----|----|----|----|----|----|
----|----|----|----|----|----|----|----|----|----|----|----|----|----|----|----|
----|----|----|----|----|----|----|----|----|----|----|----|----|----|----|----|
----|----|----|----|----|----|----|----|----|----|----|----|----|----|----|----|
----|----|----|----|----|----|----|----|----|----|----|----|----|----|----|----|
----|----|----|----|----|----|----|----|----|----|----|----|----|----|----|----|


----|----|----|----||
----|----|----|----||
----|----|----|----||
----|----|----|----||
----|----|----|----||
----|----|----|----||


Arpeggios



E |----|----|----|----|----|----------------------------|
B |----|----|----|----|----|----------------------------|
G |----|----|----|----|----|--------6-----------4-------|
D |----|----|----|----|----|-----4-----4-----4-----4----|
A |----|----|----|----|----|--5-----------5-------------|
E |----|----|----|----|----|----------------------------|


----------------------------|----------------------------|
----------------------------|----------------------------|
--------3-----------4-------|--------6-----------4-------|
-----4-----4-----4-----4----|-----4-----4-----4-----4----|
--5-----------5-------------|--5-----------5-------------|
----------------------------|----------------------------|


----------------------------|----------------------------|
----------------------------|----------------------------|
--------3-----------4-------|--------6-----------4-------|
-----4-----4-----4-----4----|-----4-----4-----4-----4----|
--5-----------5-------------|--5-----------5-------------|
----------------------------|----------------------------|


----------------------------|----------------------------|
----------------------------|----------------------------|
--------3-----------4-------|--------6-----------4-------|
-----4-----4-----4-----4----|-----4-----4-----4-----4----|
--5-----------5-------------|--5-----------5-------------|
----------------------------|----------------------------|


----------------------------|----------------------------|
----------------------------|----------------------------|
--------3-----------4-------|--------4-----------2-------|
-----4-----4-----4-----4----|-----3-----3-----3-----3----|
--5-----------5-------------|--3-----------3-------------|
----------------------------|----------------------------|


----------------------------|----------------------------|
----------------------------|----------------------------|
--------0-----------2-------|--------4-----------2-------|
-----3-----3-----3-----3----|-----3-----3-----3-----3----|
--3-----------3-------------|--3-----------3-------------|
----------------------------|----------------------------|


----------------------------|----------------------------|
----------------------------|----------------------------|
--------0-----------2-------|--------6-----------4-------|
-----3-----3-----3-----3----|-----4-----4-----4-----4----|
--3-----------3-------------|--5-----------5-------------|
----------------------------|----------------------------|


----------------------------|----------------------------|
----------------------------|----------------------------|
--------3-----------4-------|--------6-----------4-------|
-----4-----4-----4-----4----|-----4-----4-----4-----4----|
--5-----------5-------------|--5-----------5-------------|
----------------------------|----------------------------|


----------------------------|----------------------------|
----------------------------|----------------------------|
--------3-----------4-------|--------7-----------6-------|
-----4-----4-----4-----4----|-----5-----7-----5-----5----|
--5-----------5-------------|--7-----------7-------------|
----------------------------|----------------------------|


----------------------------|----------------------------|
----------------------------|----------------------------|
--------5-----------6-------|--------7-----------6-------|
-----5-----5-----5-----5----|-----5-----7-----5-----5----|
--7-----------7-------------|--7-----------7-------------|
----------------------------|----------------------------|


----------------------------|----------------------------|
----------------------------|----------------------------|
--------5-----------6-------|--------9-----------7-------|
-----5-----5-----5-----5----|-----7-----7-----7-----7----|
--7-----------7-------------|--8-----------8-------------|
----------------------------|----------------------------|


----------------------------|----------------------------|
----------------------------|----------------------------|
--------6-----------7-------|--------9-----------7-------|
-----7-----7-----7-----7----|-----7-----7-----7-----7----|
--8-----------8-------------|--8-----------8-------------|
----------------------------|----------------------------|


----------------------------|----------------------------|
----------------------------|----------------------------|
--------6-----------7-------|--------6-----------4-------|
-----7-----7-----7-----7----|-----4-----4-----4-----4----|
--8-----------8-------------|--5-----------5-------------|
----------------------------|----------------------------|


----------------------------|----------------------------|
----------------------------|----------------------------|
--------3-----------4-------|--------6-----------4-------|
-----4-----4-----4-----4----|-----4-----4-----4-----4----|
--5-----------5-------------|--5-----------5-------------|
----------------------------|----------------------------|


----------------------------|----------------------------|
----------------------------|----------------------------|
--------3-----------4-------|--------4-----------2-------|
-----4-----4-----4-----4----|-----3-----3-----3-----3----|
--5-----------5-------------|--3-----------3-------------|
----------------------------|----------------------------|


----------------------------|----------------------------|
----------------------------|----------------------------|
--------0-----------2-------|--------4-----------2-------|
-----3-----3-----3-----3----|-----3-----3-----3-----3----|
--3-----------3-------------|--3-----------3-------------|
----------------------------|----------------------------|


----------------------------|----------------------------|
----------------------------|----------------------------|
--------0-----------2-------|--------6-----------4-------|
-----3-----3-----3-----3----|-----4-----4-----4-----4----|
--3-----------3-------------|--5-----------5-------------|
----------------------------|----------------------------|


----------------------------|----------------------------|
----------------------------|----------------------------|
--------3-----------4-------|--------6-----------4-------|
-----4-----4-----4-----4----|-----4-----4-----4-----4----|
--5-----------5-------------|--5-----------5-------------|
----------------------------|----------------------------|


----------------------------|----------------------------|
----------------------------|----------------------------|
--------3-----------4-------|--------7-----------6-------|
-----4-----4-----4-----4----|-----5-----7-----5-----5----|
--5-----------5-------------|--7-----------7-------------|
----------------------------|----------------------------|


----------------------------|----------------------------|
----------------------------|----------------------------|
--------5-----------6-------|--------7-----------6-------|
-----5-----5-----5-----5----|-----5-----7-----5-----5----|
--7-----------7-------------|--7-----------7-------------|
----------------------------|----------------------------|


----------------------------|----------------------------|
----------------------------|----------------------------|
--------5-----------6-------|--------9-----------7-------|
-----5-----5-----5-----5----|-----7-----7-----7-----7----|
--7-----------7-------------|--8-----------8-------------|
----------------------------|----------------------------|


----------------------------|----------------------------|
----------------------------|----------------------------|
--------6-----------7-------|--------9-----------7-------|
-----7-----7-----7-----7----|-----7-----7-----7-----7----|
--8-----------8-------------|--8-----------8-------------|
----------------------------|----------------------------|


----------------------------|-------|----|----|----|----|----|----|----|----|
----------------------------|-------|----|----|----|----|----|----|----|----|
--------6-----------7-------|--9----|----|----|----|----|----|----|----|----|
-----7-----7-----7-----7----|--7----|----|----|----|----|----|----|----|----|
--8-----------8-------------|--8----|----|----|----|----|----|----|----|----|
----------------------------|-------|----|----|----|----|----|----|----|----|


----|----|----|----|----|----|----|----|----|----|----|----|----|----||
----|----|----|----|----|----|----|----|----|----|----|----|----|----||
----|----|----|----|----|----|----|----|----|----|----|----|----|----||
----|----|----|----|----|----|----|----|----|----|----|----|----|----||
----|----|----|----|----|----|----|----|----|----|----|----|----|----||
----|----|----|----|----|----|----|----|----|----|----|----|----|----||


Organ


E |----|----|----|----|----|----|----|----|----|----|----|----|----|----|----|
B |----|----|----|----|----|----|----|----|----|----|----|----|----|----|----|
G |----|----|----|----|----|----|----|----|----|----|----|----|----|----|----|
D |----|----|----|----|----|----|----|----|----|----|----|----|----|----|----|
A |----|----|----|----|----|----|----|----|----|----|----|----|----|----|----|
E |----|----|----|----|----|----|----|----|----|----|----|----|----|----|----|


----|----|----|----|----|----|----|----|----|----|----|----|----|----|
----|----|----|----|----|----|----|----|----|----|----|----|----|----|
----|----|----|----|----|----|----|----|----|----|----|----|----|----|
----|----|----|----|----|----|----|----|----|----|----|----|----|----|
----|----|----|----|----|----|----|----|----|----|----|----|----|----|
----|----|----|----|----|----|----|----|----|----|----|----|----|----|


----------------|----------------|----------------|----------------|
----------------|----------------|----------------|----------------|
--6.-6.-4.-4.---|--3.-3.-4.-4.---|--6.-6.-4.-4.---|--3.-3.-4.-4.---|
--4.-4.-4.-4.---|--4.-4.-4.-4.---|--4.-4.-4.-4.---|--4.-4.-4.-4.---|
--5.-5.-5.-5.---|--5.-5.-5.-5.---|--5.-5.-5.-5.---|--5.-5.-5.-5.---|
----------------|----------------|----------------|----------------|


----------------|----------------|----------------|----------------|
----------------|----------------|----------------|----------------|
--4.-4.-2.-2.---|--0.-0.-2.-2.---|--4.-4.-2.-2.---|--0.-0.-2.-2.---|
--3.-3.-3.-3.---|--3.-3.-3.-3.---|--3.-3.-3.-3.---|--3.-3.-3.-3.---|
--3.-3.-3.-3.---|--3.-3.-3.-3.---|--3.-3.-3.-3.---|--3.-3.-3.-3.---|
----------------|----------------|----------------|----------------|


----------------|----------------|----------------|----------------|
----------------|----------------|----------------|----------------|
--6.-6.-4.-4.---|--3.-3.-4.-4.---|--6.-6.-4.-4.---|--3.-3.-4.-4.---|
--4.-4.-4.-4.---|--4.-4.-4.-4.---|--4.-4.-4.-4.---|--4.-4.-4.-4.---|
--5.-5.-5.-5.---|--5.-5.-5.-5.---|--5.-5.-5.-5.---|--5.-5.-5.-5.---|
----------------|----------------|----------------|----------------|


----------------|----------------|----------------|----------------|
----------------|----------------|----------------|----------------|
--7.-7.-6.-6.---|--5.-5.-6.-6.---|--7.-7.-6.-6.---|--5.-5.-6.-6.---|
--5.-5.-5.-5.---|--5.-5.-5.-5.---|--5.-5.-5.-5.---|--5.-5.-5.-5.---|
--7.-7.-7.-7.---|--7.-7.-7.-7.---|--7.-7.-7.-7.---|--7.-7.-7.-7.---|
----------------|----------------|----------------|----------------|


----------------|----------------|----------------|----------------|-------|
----------------|----------------|----------------|----------------|-------|
--9.-9.-7.-7.---|--6.-6.-7.-7.---|--9.-9.-7.-7.---|--6.-6.-7.-7.---|--9----|
--7.-7.-7.-7.---|--7.-7.-7.-7.---|--7.-7.-7.-7.---|--7.-7.-7.-7.---|--7----|
--8.-8.-8.-8.---|--8.-8.-8.-8.---|--8.-8.-8.-8.---|--8.-8.-8.-8.---|--8----|
----------------|----------------|----------------|----------------|-------|


----|----|----|----|----|----|----|----|----|----|----|----|----|----|----|----|
----|----|----|----|----|----|----|----|----|----|----|----|----|----|----|----|
----|----|----|----|----|----|----|----|----|----|----|----|----|----|----|----|
----|----|----|----|----|----|----|----|----|----|----|----|----|----|----|----|
----|----|----|----|----|----|----|----|----|----|----|----|----|----|----|----|
----|----|----|----|----|----|----|----|----|----|----|----|----|----|----|----|


----|----|----|----|----|----||
----|----|----|----|----|----||
----|----|----|----|----|----||
----|----|----|----|----|----||
----|----|----|----|----|----||
----|----|----|----|----|----||


Bass



G |----|----|----|----|----|----|----|----|----|----|----|----|----|----|----|
D |----|----|----|----|----|----|----|----|----|----|----|----|----|----|----|
A |----|----|----|----|----|----|----|----|----|----|----|----|----|----|----|
E |----|----|----|----|----|----|----|----|----|----|----|----|----|----|----|


----|----|----|----|----|----|----|----|----|----|----|----|----|----|----|----|
----|----|----|----|----|----|----|----|----|----|----|----|----|----|----|----|
----|----|----|----|----|----|----|----|----|----|----|----|----|----|----|----|
----|----|----|----|----|----|----|----|----|----|----|----|----|----|----|----|


----|----|----|----|----|----|----|----|----|
----|----|----|----|----|----|----|----|----|
----|----|----|----|----|----|----|----|----|
----|----|----|----|----|----|----|----|----|


----------------------------------------------------|-------|
----------------------------------------------------|-------|
--------------------------------------2--3--4-------|--5----|
----------------------------------------------------|-------|


----------------------------------------------------|-------|
----------------------------------------------------|-------|
--------------------------------------10-9--10------|--7----|
----------------------------------------------------|-------|


----------------------------------------|----------|----------|----------|
-----------------------------4--7--5----|----------|----------|----------|
----------------------------------------|--7--5----|--4--5----|--7--5----|
----------------------------------------|----------|----------|----------|


----------|-------|----------------------------|----------------------------|
----------|-------|----------------------------|----------------------------|
--4--5----|--8----|----------------------------|----------------------------|
----------|-------|--9--------9--------9--11---|--6--------6--------6--8----|


----------------------------|----------------------------|
----------------------------|----------------------------|
----------------------------|----------------------------|
--9--------9--------9--11---|--6--------6--------6--8----|


----------------------------|
----------------------------|
----------------------------|
--7--------7--------7--5----|


----------------------------------------------------|
----------------------------------------------------|
----------------------------------------------------|
--3-----------------3-----------------5--7----------|


----------------------------|
----------------------------|
----------------------------|
--7--------7--------7--5----|


----------------------------------------------------|
----------------------------------------------------|
----------------------------------------------------|
--3-----------------3-----------------5--7----------|


----------------------------|----------------------------|
----------------------------|----------------------------|
----------------------------|----------------------------|
--9--------9--------9--11---|--6--------6--------6--8----|


----------------------------|----------------------------|
----------------------------|----------------------------|
----------------------------|----------------------------|
--9--------9--------9--11---|--6--------6--------6--8----|


----------------------------|
----------------------------|
----------------------------|
--10-------10-------12-13---|


----------------------------------------------------|
----------------------------------------------------|
----------------------------------------------------|
--8-----------------8-----------------6--8----------|


----------------------------|
----------------------------|
----------------------------|
--10-------10-------12-13---|


----------------------------------------------------|
----------------------------------------------------|
----------------------------------------------------|
--8-----------------8-----------------6--8----------|


----------------------------|
----------------------------|
----------------------------|
--12-------12-------12-11---|


----------------------------------------------------|
----------------------------------------------------|
----------------------------------------------------|
--9-----------------9-----------------9--11---------|


----------------------------|
----------------------------|
----------------------------|
--12-------12-------12-11---|


----------------------------------------------------|-------|----||
----------------------------------------------------|-------|----||
----------------------------------------------------|-------|----||
--9-----------------9-----------------9--11---------|--12---|----||


Additional guitar


E |----|----|----|----|----|----|----|----|----|----|----|----|----|----|----|
B |----|----|----|----|----|----|----|----|----|----|----|----|----|----|----|
G |----|----|----|----|----|----|----|----|----|----|----|----|----|----|----|
D |----|----|----|----|----|----|----|----|----|----|----|----|----|----|----|
A |----|----|----|----|----|----|----|----|----|----|----|----|----|----|----|
E |----|----|----|----|----|----|----|----|----|----|----|----|----|----|----|


----|----|----|----|----|----|----|----|----|----|----|----|----|----|----|----|
----|----|----|----|----|----|----|----|----|----|----|----|----|----|----|----|
----|----|----|----|----|----|----|----|----|----|----|----|----|----|----|----|
----|----|----|----|----|----|----|----|----|----|----|----|----|----|----|----|
----|----|----|----|----|----|----|----|----|----|----|----|----|----|----|----|
----|----|----|----|----|----|----|----|----|----|----|----|----|----|----|----|


----|----|----|----|----|----|----|----|----|----|----|----|----|----|----|----|
----|----|----|----|----|----|----|----|----|----|----|----|----|----|----|----|
----|----|----|----|----|----|----|----|----|----|----|----|----|----|----|----|
----|----|----|----|----|----|----|----|----|----|----|----|----|----|----|----|
----|----|----|----|----|----|----|----|----|----|----|----|----|----|----|----|
----|----|----|----|----|----|----|----|----|----|----|----|----|----|----|----|


----|----|----|----------------------------------------------------|
----|----|----|----------------------------------------------------|
----|----|----|----------------------------------------------------|
----|----|----|--11----------------11----------------11----11------|
----|----|----|--11-------11M11M11M11-------11M11M11M11----11------|
----|----|----|--9--------9M-9M-9M-9--------9M-9M-9M-9-----9-------|


----------------------------------------------------|
----------------------------------------------------|
----------------------------------------------------|
--8-----------------8-----------------8-----8-------|
--8--------8M-8M-8M-8--------8M-8M-8M-8-----8-------|
--6--------6M-6M-6M-6--------6M-6M-6M-6-----6-------|


----------------------------------------------------|
----------------------------------------------------|
----------------------------------------------------|
--11----------------11----------------11----11------|
--11-------11M11M11M11-------11M11M11M11----11------|
--9--------9M-9M-9M-9--------9M-9M-9M-9-----9-------|


----------------------------------------------------|
----------------------------------------------------|
----------------------------------------------------|
--8-----------------8-----------------8-----8-------|
--8--------8M-8M-8M-8--------8M-8M-8M-8-----8-------|
--6--------6M-6M-6M-6--------6M-6M-6M-6-----6-------|


----------------------------------------------------|
----------------------------------------------------|
----------------------------------------------------|
--9-----------------9-----------------9-----9-------|
--9--------9M-9M-9M-9--------9M-9M-9M-9-----9-------|
--7--------7M-7M-7M-7--------7M-7M-7M-7-----7-------|


----------------------------------------------------|
----------------------------------------------------|
----------------------------------------------------|
--5-----------------5-----------------5-----5-------|
--5--------5M-5M-5M-5--------5M-5M-5M-5-----5-------|
--3--------3M-3M-3M-3--------3M-3M-3M-3-----3-------|


----------------------------------------------------|
----------------------------------------------------|
----------------------------------------------------|
--9-----------------9-----------------9-----9-------|
--9--------9M-9M-9M-9--------9M-9M-9M-9-----9-------|
--7--------7M-7M-7M-7--------7M-7M-7M-7-----7-------|


----------------------------------------------------|
----------------------------------------------------|
----------------------------------------------------|
--5-----------------5-----------------5-----5-------|
--5--------5M-5M-5M-5--------5M-5M-5M-5-----5-------|
--3--------3M-3M-3M-3--------3M-3M-3M-3-----3-------|


----------------------------------------------------|
----------------------------------------------------|
----------------------------------------------------|
--11----------------11----------------11----11------|
--11-------11M11M11M11-------11M11M11M11----11------|
--9--------9M-9M-9M-9--------9M-9M-9M-9-----9-------|


----------------------------------------------------|
----------------------------------------------------|
----------------------------------------------------|
--8-----------------8-----------------8-----8-------|
--8--------8M-8M-8M-8--------8M-8M-8M-8-----8-------|
--6--------6M-6M-6M-6--------6M-6M-6M-6-----6-------|


----------------------------------------------------|
----------------------------------------------------|
----------------------------------------------------|
--11----------------11----------------11----11------|
--11-------11M11M11M11-------11M11M11M11----11------|
--9--------9M-9M-9M-9--------9M-9M-9M-9-----9-------|


----------------------------------------------------|
----------------------------------------------------|
----------------------------------------------------|
--8-----------------8-----------------8-----8-------|
--8--------8M-8M-8M-8--------8M-8M-8M-8-----8-------|
--6--------6M-6M-6M-6--------6M-6M-6M-6-----6-------|


----------------------------------------------------|
----------------------------------------------------|
----------------------------------------------------|
--12----------------12----------------12----12------|
--12-------12M12M12M12-------12M12M12M12----12------|
--10-------10M10M10M10-------10M10M10M10----10------|


----------------------------------------------------|
----------------------------------------------------|
----------------------------------------------------|
--10----------------10----------------10----10------|
--10-------10M10M10M10-------10M10M10M10----10------|
--8--------8M-8M-8M-8--------8M-8M-8M-8-----8-------|


----------------------------------------------------|
----------------------------------------------------|
----------------------------------------------------|
--12----------------12----------------12----12------|
--12-------12M12M12M12-------12M12M12M12----12------|
--10-------10M10M10M10-------10M10M10M10----10------|


----------------------------------------------------|
----------------------------------------------------|
----------------------------------------------------|
--10----------------10----------------10----10------|
--10-------10M10M10M10-------10M10M10M10----10------|
--8--------8M-8M-8M-8--------8M-8M-8M-8-----8-------|


----------------------------------------------------|
----------------------------------------------------|
----------------------------------------------------|
--14----------------14----------------14----14------|
--14-------14M14M14M14-------14M14M14M14----14------|
--12-------12M12M12M12-------12M12M12M12----12------|


----------------------------------------------------|
----------------------------------------------------|
----------------------------------------------------|
--11----------------11----------------11----11------|
--11-------11M11M11M11-------11M11M11M11----11------|
--9--------9M-9M-9M-9--------9--9M-9M-9-----9-------|


----------------------------------------------------|
----------------------------------------------------|
----------------------------------------------------|
--14----------------14----------------14----14------|
--14-------14M14M14M14-------14M14M14M14----14------|
--12-------12M12M12M12-------12M12M12M12----12------|


----------------------------------------------------|-------|----||
----------------------------------------------------|-------|----||
----------------------------------------------------|-------|----||
--11----------------11----------------11----11------|--14---|----||
--11-------11M11M11M11-------11M11M11M11----11------|--14---|----||
--9--------9M-9M-9M-9--------9--9M-9M-9-----9-------|--12---|----||
Login or Register to remove this ad.