Ads

Dancing Mad (Tier 4) (Final Fantasy VI) Guitar Tab

Submitted: Feb 03, 2012 by Omnicide

5
Average: 5 (9 votes)
Download | Listen
Game: Final Fantasy VI
Composer(s): Nobuo Uematsu
Style: Arrangement, Fingerstyle, Natural harmonics
Series: Final Fantasy

AutoScroll: Slow | Medium | Fast
Dancing Mad Tier 4
Final Fantasy VI
Composed by Nobuo Uematsu
Arranged by William Geesdorf


C#ADGBE Tuning


      ^                   ^                   ^                   ^                 
      W                   W                   W                   W                 
E ||-------------------|-------------------|-------------------|-------------------|
B ||-------------------|-------------------|-------------------|-------------------|
G ||-------------------|-------------------|-------------------|--0----------------|
D ||-------------------|-------------------|--0----------------|--0----------------|
A ||-------------------|--0----------------|--0----------------|--0----------------|
C#||--3----------------|--3----------------|--3----------------|--3----------------|


  ^                   ^                                                          
  W                   W                   Q    H.              W                 
-------------------|--1----------------|--------------------|-------------------|
--1----------------|--1----------------|--5----4------------|--L----------------|
--0----------------|--0----------------|--5----4------------|--L----------------|
--0----------------|--0----------------|--6----6------------|--L----------------|
--0----------------|--0----------------|--------------------|-------------------|
--3----------------|--3----------------|--4----4------------|--L----------------|


  Q    H.              W                   E  S E  S E  S E  S E  E   
--------------------|-------------------|----------------------------|
--5----4------------|--L----------------|----------------------------|
--5----4------------|--L----------------|----------------------------|
--6----6------------|--L----------------|----------------------------|
--------------------|-------------------|----------------------------|
--4----4------------|--L----------------|--0--2-3--2-0--2-3--2-0--2--|


  E  S E  S E  S E  S E  E     E  S E  S E  S E  S E  E     E  S E  S E  S E  S E  E   
----------------------------|----------------------------|----------------------------|
----------------------------|----------------------------|----------------------------|
----------------------------|----------------------------|----------------------------|
----------------------------|----------------------------|----------------------------|
----------------------------|----------------------------|----------------------------|
--0--2-3--2-0--2-3--2-0--2--|--0--2-3--2-0--2-3--2-0--2--|--0--2-3--2-0--2-3--2-0--2--|


    E  E  E  E  E  S S S S E     E  S S S S S S S S S  S S  S  
|-----------------------------|-------------------------------|
|-----------------------------|-------------------------------|
|*----------------------------|-------------------------------|
|*-----6--6--6--6--6-9---7-5--|--6--7-9---7---6---6-9p-8-7p-6-|
|------9--7--6--4--4-7---6-4--|--9--7-6---4---6---6-9----7----|
|---0--0--0--0--0--0---0---0--|--0--0---0---0---0---0----0----|


  E  E  E  E  E  S S S S E     E  S S S S S S S S E  E     E  E  E  E  E  S S S S E   
----------------------------|---------------------------|----------------------------|
-----0-------------5---4----|--0----5---4---------------|----------------------------|
-----6--6--6--6--6-------5--|--6--8---------6---6-5--6--|----------------------------|
--------7--6--4--4-7---6-4--|-----7-6---4---6---6-7--6--|-----6--6--6--6--6-9---7-5--|
----------------------------|---------------------7--6--|-----9--7--6--4--4-7---6-4--|
--5--5--5--5--5--5---5---5--|--5--5---5---5---5---------|--0--0--0--0--0--0---0---0--|


  E  S S S S S S S S S  S S  S    E  E  E  E  E  S S S S E     E  S S S S S S S S E  E   
-------------------------------|----------------------------|---------------------------|
-------------------------------|-----0-------------5---4----|--0----5---4---------------|
-------------------------------|-----6--6--6--6--6-------5--|--6--8---------6---6-5--6--|
--6--7-9---7---6---6-9p-8-7p-6-|--------7--6--4--4-7---6-4--|-----7-6---4---6---6-7--6--|
--9--7-6---4---6---6-9----7----|----------------------------|---------------------7--6--|
--0--0---0---0---0---0----0----|--5--5--5--5--5--5---5---5--|--5--5---5---5---5---------|


  E.  S S E  S E  E  E  E     E  S E  S E  S E  S    E  S E  S E  E  E  E   
--4-----0----0-2--2--------|----------------------|------------------------|
------4-0-2----0-----5--1--|----------------------|------------------------|
--5-------2----------3--2--|--6---------0---------|------------0-----------|
---------------------------|--6-------4----4------|----------4----4--------|
--------0------2-----3-----|--4--6-7---------7--6-|--4--6-7----------7--6--|
--7------------------------|----------------------|------------------------|

                            1st Ending
  E.  S S E  S E  E  E  E     E  S E  S E  S E  S E  E     E  S E  S E  S E  S E  E     
--4-----0----0-2--2--------|----------------------------|-----------------------------||
------4-0-2----0-----5--1--|--2-------------------------|-----------------------------||
--5-------2----------3--2--|--1-------------------------|----------------------------*||
---------------------------|----------------------------|----------------------------*||
--------0------2-----3-----|----------------------------|-----------------------------||
--7------------------------|--0--2-3--2-0--2-3--2-0--2--|--0--2-3--2-0--2-3--2-0--2---||

2nd Ending
  E  S E  S E  S E  S E  E     E  S E  S E  S E  S E  E   
----------------------------|----------------------------|
--2-------------------------|----------------------------|
--1-------------------------|--2---------4---------2-----|
----------------------------|--2---------4---------2-----|
----------------------------|-------------------------2--|
--0--2-3--2-0--2-3--2-0--2--|--0--2-3--2-0--2-3--2-0-----|


    S S S S S S S S S S S S S S    S S S S S S S S S S S S S S S S    
|---3-----1-------------------7-|--3-----1-------------------7------||
|-----3-----1---4-----------7---|----3-----1---4-----------7---7----||
|*------2-----0---3---0---6-----|------2-----0---3---0---6-------6-*||
|*------------------3---6-------|------------------3---6-----------*||
|---3-----3-----3---------------|--3-----3-----3--------------------||
|-----------------------5---5---|----------------------5---5---5----||


  E  E  E  E  E  E  E  S S      S S S S S S S S S S S S S S  
--------0--2--4--0--5--4-2-||---3-----1-------------------7-|
-----4--0------------------||-----3-----1---4-----------7---|
--6--5-----3--1--0---------||*------2-----0---3---0---6-----|
--------------------4--2-1-||*------------------3---6-------|
---------------------------||---3-----3-----3---------------|
---------------------------||-----------------------5---5---|


  S S S S S S S S S S S S S S S S      E.  S S E  S E  E  E  E   
--3-----1-------------------7------||--4-----0----0-2--2--------|
----3-----1---4-----------7---7----||------4-0-2----0-----5--1--|
------2-----0---3---0---6-------6-*||--5-------2----------3--2--|
------------------3---6-----------*||---------------------------|
--3-----3-----3--------------------||--------0------2-----3-----|
----------------------5---5---5----||--7------------------------|


  E  S E  S E  S E  S E  E     E  S E  S E  S E  S E  E     E.  S S E  S E  E  E  E   
----------------------------|----------------------------|--4-----0----0-2--2--------|
--2-------------------------|----------------------------|------4-0-2----0-----5--1--|
--1-------------------------|----------------------------|--5-------2----------3--2--|
----------------------------|----------------------------|---------------------------|
----------------------------|----------------------------|--------0------2-----3-----|
--0--2-3--2-0--2-3--2-0--2--|--0--2-3--2-0--2-3--2-0--2--|--7------------------------|

                                                    
  E  S E  S E  H           E  S E   S  E  H           E  E  E  E  E  E  E  E   
-------0--2-3-----------|--3--5-6---8--9-----------|--------------------------|
--2--4------------------|--------------------------|--2-----------2-----------|
------------------------|--------------------------|-----------1-----1--------|
-------2--4-5-----------|--5--7-8--10-11-----------|--------2-----------2-----|
--4--6------------------|--------------------------|-----4-----------------4--|
------------------------|--------------------------|--0-----------------------|


  E  E  E  E  E  E  E  S  S    E  E  E  E  E  E  E  E     E  E  E  E  E  E  E  E   
----------------------------|--0-----------0-----------|--0-----------------------|
--2-----------0--------2h-4-|-----------0-----0--------|--------------3-----------|
----------------------------|--------1-----------1-----|-----------1-----2--1-----|
--------1--4-----4--1-------|-----2-----------------2--|-----0--4--------------4--|
-----2-----------------2----|--------------------------|--------------------------|
--2-------------------------|--3-----------------------|--1-----------------------|


  E  E  E  E  E  E  E  E     E  E  E  E  E  E  E  E     E  E  E  E  E  E  E  E   
--------------------------|--------------------------|--------------------------|
--3-----------2--------0--|--------------------------|--------------------------|
-----------1-----0--------|--4-----------------------|--2-----------1-----------|
-----0--3-----3--0--6-----|--------6-----7-----2-----|--------1--------0--1--4--|
--2-----------------4--2--|-----4-----4-----4-----4--|-----2-----4--3-----------|
--------------------------|--5-----------------3-----|--2--------0--------------|


  E  E  E  E  E  E  E  E     E  E  E  E  E  E  E  E     E  E  E  E  E  E  E  E   
--------------------------|--------------------------|--------------------------|
--------------------------|--------------------------|--------------------------|
--------6-----1--------1--|--------------------------|--------------------------|
--4--6-----6--2-----2-----|--6-----------4-----2-----|--2-----2-----2-----2-----|
--4-----------2--4--------|-----0--4--6--7--6--4--0--|-----4-----4-----4-----4--|
--------------------------|--8-----------------------|--0-----------------------|


  E  E  E  E  E  E  E  E     E  E  E  E  E  E  E  E     E  E  E  E  E  E  S  S S S  
--------------------------|--------------------------|-----------------------------|
--------------------------|--------------------------|--0------------------------0-|
--------------------------|--6-----------------------|--------------1----------3---|
--1-----1-----1-----1-----|--------------6-----------|--------1--2-----2--4h-6-----|
-----3-----3-----3-----3--|-----0--6--7-----7--6--0--|-----2--------------6----2---|
--0-----------------------|--5-----------------------|--5--------------------------|


  E  E  E  E  E  E  E  E     E  E  E  E  E  E  E  S  S    E  E  E  E  E  E  E  E   
--------------------------|----------------------------|--0-----------0-----------|
--2-----------2-----------|--2-----------0--------2h-4-|-----------0-----0--------|
-----------1-----1--------|----------------------------|--------1-----------1-----|
--------2-----------2-----|--------1--4-----4--1-------|-----2-----------------2--|
-----4-----------------4--|-----2-----------------2----|--------------------------|
--0--------0--0-----------|--2-----2-----2--------2----|--3--------3--3-----------|


  E  E  E  E  E  E  E  E     E  E  E  E  E  E  E  E     E  E  E  E  E  E  E  E   
--0-----------------------|--------------------------|--------------------------|
--------------3-----------|--3-----------2--------0--|--------------------------|
-----------1-----2--1-----|-----------1-----0--------|--4-----1-----2-----------|
-----0--4--------------4--|-----0--3-----3--0--6-----|--------4-----------2-----|
--------------------------|--2--------2--------4--2--|-----4-----4-----4-----4--|
--1-----1-----1--------1--|--------------------------|--5--------5--5-----3-----|


  E  E  E  E  E  E  E  E     E  E  E  E  E  E  E  E     E  E  E  E  E  E  E  E   
--------------------------|--------------------------|--------------------------|
--------------------------|--------------------------|--------------------------|
--2-----------------------|--------6-----1--------1--|--------------------------|
--------1--------0--1--4--|--4--6-----6--2-----2-----|--6-----------4-----2-----|
-----2-----4--3--------3--|--4--------4--2--4--4-----|-----0--4--6--7--6--4--0--|
--2--------0--------------|--------------------------|--8--------8--------------|


  E  E  E  E  E  E  E  E     E  E  E  E  E  E  E  E     E  E  E  E  E  E  E  E   
--------------------------|--------------------------|--------------------------|
--------------------------|--------------------------|--------------------------|
--------------------------|--------------------------|--6-----------------------|
--2-----2-----2-----2-----|--1-----1-----1-----1-----|--------------6-----------|
-----4-----4-----4-----4--|-----2-----2-----2-----2--|-----0--6--7-----7--6--0--|
--0--------0--0-----------|--0-----0-----0--------0--|--5--------5--5-----------|


  E  E  E  E  E  E  S  S S S    E  E  E  E  E  E  E  E     E  E  E  E  E  E  E  E   
-----------------------------|--------------------------|--------------------------|
--0------------------------0-|--------------------------|--------------------------|
--------------1----------3---|--6-----------6--------6--|--7-----------7-----------|
--------1--2-----2--4h-6-----|-----------6-----6--------|-----7-----7-----7-----7--|
-----2--------------6----2---|-----4--7-----------7-----|--------9-----------9-----|
--5-----5-----5--------------|--0-----------0-----------|--0-----------------------|


  E  E  E  E  E  E  E  E     E  E  E  E  E  E  E  E     E  E  E  E  E  E  E  E   
--------------------------|--------------------------|--------------------------|
--------------------------|--------------------------|--------------------------|
--------------6--------6--|--7-----------7-----------|--------------6--------6--|
-----------6-----6--------|-----7-----7-----7-----7--|-----------6-----6--------|
-----4--7-----------7-----|--------9-----------9-----|-----4--7-----------7-----|
--0-----------0-----------|--0-----------------------|--0-----------0-----------|


  E  E  E  E  E  E  E  E     E  E  E  E  E  E  E  E     E  E  E  E  E  E  E  E   
--------------------------|--------------------------|--------------------------|
--------------------------|--------------------------|--------------------------|
--7-----------7-----------|--------------6--------6--|--7-----------7-----------|
-----7-----7-----7-----7--|-----------6-----6--------|-----7-----7-----7--6--4--|
--------9-----------9-----|-----4--7-----------7-----|--------9-----------------|
--0-----------------------|--0-----------0-----------|--0-----------------------|


  ^                       NH                                                         
  W                       W                   H        H           W                 
-------------------||----------------------|--------------------|-------------------|
--2----------------||----------------------|--------------------|-------------------|
--1----------------||*---------------------|--------------------|-------------------|
--3----------------||*---------------------|--9--------6--------|--7----------------|
--4----------------||---<>9----------------|--7--------6--------|--5----------------|
--0----------------||-----0----------------|--------------------|-------------------|


                        NH                                                         
  W                     W                   H        H           W                 
-------------------|---------------------|--------------------|-------------------|
-------------------|---------------------|--------------------|--7----------------|
-------------------|---------------------|--------------------|--7----------------|
--L----------------|---------------------|--9--------6--------|--7----------------|
--L----------------|--<>9----------------|--7--------6--------|-------------------|
-------------------|----0----------------|--------------------|-------------------|


                          NH                                        NH                
  W                       W                   W                     W                 
--------------------||---------------------|-------------------|---------------------|
--L-----------------||---------------------|-------------------|---------------------|
--L----------------*||---------------------|-------------------|---------------------|
--L----------------*||---------------------|-------------------|---------------------|
--------------------||--<>9----------------|--L----------------|--<>9----------------|
--------------------||----0----------------|-------------------|---------------------|


                        NH                                        NH                
  W                     W                   W                     W                 
-------------------|---------------------|-------------------|---------------------|
-------------------|---------------------|-------------------|---------------------|
-------------------|---------------------|-------------------|---------------------|
-------------------|---------------------|-------------------|---------------------|
--L----------------|--<>9----------------|--L----------------|--<>9----------------|
-------------------|---------------------|-------------------|---------------------|


  W                  
-------------------||
-------------------||
-------------------||
-------------------||
--L----------------||
-------------------||




Duration Legend
---------------
W - whole
H - half
Q - quarter
E - 8th
S - 16th
T - 32nd
X - 64th
. - note dotted
|-n-|  - n-tuplets


Tablature Legend
----------------
L - tied note
NH - natural harmonic
h - hammer on
p - pull off
< - fade in
^ - brush up
Login or Register to remove this ad.

11 comments on Dancing Mad (Tier 4)

Holy mother of god ...

5

Holy mother of god ...

christ this sounds

5

christ this sounds amazing
but looks terrifying to play
i'm not even going to try.

On what basis can you rate a

On what basis can you rate a tab before trying to play it through? I mean, unless you're just rating the midi file. But, it's supposed to be a tab rating, not a midi rating...

i havent played over half the

i havent played over half the tabs i've rated :D

i dont see whats wrong with rating the midi if you know it was made along with the tab in question, i dont have my headphones on though so im not going to check to see if that is the case with this one

First off, I want to note

First off, I want to note that Omnicide, I don't mean to troll your tab! I will try it out, and comment on it properly. :D None of the comments that follow apply to this tab specifically, but rather to a widespread phenomenon I've observed.

Brother of Esau: It seems to happen a lot with large, "difficult" tabs of popular pieces--lots of people rate them up and call them "epic" without really having a clue as to whether they are remotely practical to play.

On principle, if a tab isn't actually possible to play, then it is a pointless tab with a nice midi file. If a person knows he cannot play a tab, and doesn't know whether anyone can, he shouldn't be rating it, because maybe it is actually impossible to play.

However, as soon as someone demonstrates that the tab is playable, then it's open season and people can 5 star as much as they like, given that they like the way it sounds when actually played by a person.

It's not gamemidis.net!

I should make an amendment:

I should make an amendment: it may be the case that parts of a tab are impossible while other parts are possible and valuable, but it still wouldn't stand as a unified tab. However, maybe such a tab could be worth 5 stars if the good parts were valuable enough to a person. But all of this depends on a person actually trying to play it. Basically what I think is wrong is to say:

"OMG that is an awesome midi file--therefore, 5 star tab and you are a guitar god!"

Of course, that's my opinion and is worth either nothing, or consideration.

Seriously, I need to lighten

Seriously, I need to lighten up. And go to bed. In reverse order.

Who cares?

Who cares?

I understand what you're

I understand what you're getting at, but to be completely hoenst-
I am not a very good guitar player therefore
I might not be able to play through this song anyway
I dont wanna be that dick who says "MAKE YOUR ARRANGEMENTS MORE PLAYABLE 1 STAR" like that guy who comments on every fucking stamen arrangement.
What isn't playable to me could be playable to a more advanced player like you, kabuki, trangoul, or surreal and all the other acoustic bros
i'm not trying to sound hostile here btw- you've got a totally rational point- but I will keep on rating tabs based on the midi.

i dont think you understood

i dont think you understood what i meant, but thank you for typing such a long response

bullet points people!

Sounds great but hard to play

5

Sounds great but hard to play (you must learn to move fast all your fingers to play some chords :( )