Login or Register to remove this ad.

Dancing Mad - Tier 4 (Final Fantasy VI) Guitar Tab

Submitted: Jan 23, 2012 by Kabukibear (Last updated: May 31, 2013)

5
Average: 5 (10 votes)
Download | Listen
Game: Final Fantasy VI
Composer(s): Nobuo Uematsu
Style: Arrangement, Fingerstyle
Series: Final Fantasy

AutoScroll: Slow | Medium | Fast

Dancing Mad - Tier 4                               
~Final Fantasy VI~
Composed by: Nobuo Uematsu
Arranged by: Justin Lincoln

Drop D Tuning

     Slowly
     W                   W                   W                 
E||-------------------|-------------------|-------------------|
B||-------------------|-------------------|-------------------|
G||-------------------|-------------------|--4----------------|
D||-------------------|--4----------------|--4----------------|
A||--4----------------|--4----------------|--4----------------|
D||-------------------|-------------------|-------------------|


  W                   W                    W                 
-------------------|--5----------------|--10----------------|
--5----------------|--5----------------|--10----------------|
--4----------------|--4----------------|---9----------------|
--4----------------|--4----------------|---9----------------|
--4----------------|--4----------------|---9----------------|
-------------------|-------------------|--------------------|


   Q     H.              W                    Q     H.            
---9-----8------------|--L----------------|---9-----8------------|
--10-----9------------|--L----------------|--10-----9------------|
--10----10------------|--L----------------|--10----10------------|
----------------------|-------------------|----------------------|
----------------------|-------------------|----------------------|
---0-----0------------|--L----------------|---0-----0------------|

                      Furioso!
  W                   E  S E  S E  S E  S E  E     E  S E  S E  S E  S E  E   
--L----------------|----------------------------|----------------------------|
--L----------------|----------------------------|----------------------------|
--L----------------|----------------------------|----------------------------|
-------------------|----------------------------|----------------------------|
-------------------|--0--2-3--2-0--2-3--2-0--2--|--0--2-3--2-0--2-3--2-0--2--|
--L----------------|----------------------------|----------------------------|


  E  S E  S E  S E  S E  E     E  S E  S E  S E  S E  E   
----------------------------|----------------------------|
----------------------------|----------------------------|
----------------------------|----------------------------|
----------------------------|----------------------------|
--0--2-3--2-0--2-3--2-0--2--|--0--2-3--2-0--2-3--2-0--2--|
----------------------------|----------------------------|

SEGNO
    E  E  E  E  E  S S S S E     E  S S S S S S S S S S S S  
|------0--0--0--0--0-3---1----|--0--1-3---1---0---0-3-2-1-0-|
|------3--1--0-------1---0-4--|--3--3-1---0-------0-3-------|
|*--------------2--2-------2--|---------------2-------------|
|*----------------------------|-----------------------------|
|---0--0--0--0--0--0---0---0--|--0--0---0---0---0---0---0---|
|-----------------------------|-----------------------------|


  E  E  E  E  E  S S S S E     E  S S S S S S S S E  E   
-----5--5--5--5--5-8---7-4--|--5--5-8---7---5---5-4--5--|
-----8--6--5-------6---5-3--|--8--6-5---5---3---5-------|
--------------7--7----------|---------------------------|
----------------------------|---------------------------|
----------------------------|---------------------3--2--|
--0--0--0--0--0--0---0---0--|--0--0---0---0---0---------|


  E  E  E  E  E  S S S S E     E  S S S S S S S S S S S S  
-----0--0--0--0--0-3---1----|--0--1-3---1---0---0-3-2-1-0-|
-----3--1--0-------1---0-4--|--3--3-1---0-------0-3-------|
--------------2--2-------2--|---------------2-------------|
----------------------------|-----------------------------|
--0--0--0--0--0--0---0---0--|--0--0---0---0---0---0---0---|
----------------------------|-----------------------------|


  E  E  E  E  E  S S S S E     E  S S S S S S S S E  E   
-----5--5--5--5--5-8---7-4--|--5--5-8---7---5---5-4--5--|
-----8--6--5-------6---5-3--|--8--6-5---5---3---5-------|
--------------7--7----------|---------------------------|
----------------------------|---------------------------|
----------------------------|---------------------3--2--|
--0--0--0--0--0--0---0---0--|--0--0---0---0---0---------|


  E.  S S E  S E  E  E  E     E  S E  S E  S E  S    E  S E  S E  E  E  E   
--0------------------------|----------------------|------------------------|
------0-1----1-3--3--------|----------------------|------------------------|
--1-------2----0-----5-----|--2-------------------|------------------------|
--------3---------------6--|----------0-1--0------|----------0-1--0--------|
---------------------------|--0--2-3---------3--2-|--0--2-3----------3--2--|
--2-----3------5-----6-----|----------------------|------------------------|


  E.  S S E  S E  E  E  E     E  S E  S E  S E  S E  E   
--0------------------------|----------------------------|
------0-1----1-3--3--------|----------------------------|
--1-------2----0-----5-----|--2-------------------------|
--------3---------------6--|----------------------------|
---------------------------|--0--2-3--2-0--2-3--2-0--2--|
--2-----3------5-----6-----|----------------------------|


  E  S E  S E  S E  S E  E       S S S S S S S S S S S S S S  
-----------------------------||------------------------------|
-----------------------------||----------------------------8-|
----------------------------*||--8-----6-----4-----------7---|
----------------------------*||----8-----6-----4-------7-----|
--0--2-3--2-0--2-3--2-0--2---||------8-----6-----4-6-7-------|
-----------------------------||--6-----6-----6-------0---0---|


  S S S S S S S S S S S S S S S S    S S S S S S S S S S S S S S  
----------------------------------|------------------------------|
----------------------------8-----|----------------------------8-|
--8-----6-----4-----------7---7---|--8-----6-----4-----------7---|
----8-----6-----4-------7-------7-|----8-----6-----4-------7-----|
------8-----6-----4-6-7-----------|------8-----6-----4-6-7-------|
--6-----6-----6-------0---0---0---|--6-----6-----6-------0---0---|


  S S S S S S S S S S S S S S S S    E  E  E  E  E  E  E  S S  
----------------------------------|--------------0-----1--0---|
----------------------------8-----|-----0--1--3-----1-------3-|
--8-----6-----4-----------7---7---|--2--1--0------------------|
----8-----6-----4-------7-------7-|-----------4--3--2--0------|
------8-----6-----4-6-7-----------|-----------------------3-2-|
--6-----6-----6-------0---0---0---|---------------------------|


  S S S S S S S S S S S S S S    S S S S S S S S S S S S S S S S  
------------------------------|----------------------------------|
----------------------------8-|----------------------------8-----|
--8-----6-----4-----------7---|--8-----6-----4-----------7---7---|
----8-----6-----4-------7-----|----8-----6-----4-------7-------7-|
------8-----6-----4-6-7-------|------8-----6-----4-6-7-----------|
--6-----6-----6-------0---0---|--6-----6-----6-------0---0---0---|


  S S S S S S S S S S S S S S    S S S S S S S S S S S S S S S S  
------------------------------|----------------------------------|
----------------------------8-|----------------------------8-----|
--8-----6-----4-----------7---|--8-----6-----4-----------7---7---|
----8-----6-----4-------7-----|----8-----6-----4-------7-------7-|
------8-----6-----4-6-7-------|------8-----6-----4-6-7-----------|
--6-----6-----6-------0---0---|--6-----6-----6-------0---0---0---|


  E.  S S E  S E  E  E  E     E  S E  S E  S E  S E  E   
--0------------------------|----------------------------|
------0-1----1-3--3--------|----------------------------|
--1-------2----0-----5-----|--2-------------------------|
--------3---------------6--|----------------------------|
---------------------------|--0--2-3--2-0--2-3--2-0--2--|
--2-----3------5-----6-----|----------------------------|


  E  S E  S E  S E  S E  E     E.  S S E  S E  E  E  E   
----------------------------|--0------------------------|
----------------------------|------0-1----1-3--3--------|
----------------------------|--1-------2----0-----5-----|
----------------------------|--------3---------------6--|
--0--2-3--2-0--2-3--2-0--2--|---------------------------|
----------------------------|--2-----3------5-----6-----|

                                                      Slowly
  E  S  E   S  E  H           E  S E  S E  H           H.           E  E   
---------------------------|-----1-2--3-5-----------|---------------------|
---------------------------|--4---------------------|---------------------|
---------------------------|------------------------|--2------------L-----|
--7--9-10--12-13-----------|-----3-4--5-7-----------|--2------------L-----|
---------------------------|--6---------------------|--0------------L--0--|
--7--9-10--12-13-----------|------------------------|---------------------|


  Q    Q    Q.     S S    H.           E  E     Q    Q    Q.     E   
-----------------------|---------------------|----------------------|
---------------------0-|--1------------L-----|--1-------------------|
--2---------0------2---|--0------------L-----|------------3---------|
--0--------------------|---------------------|--0-------------------|
--2----2-----------2---|--3------------L--3--|--1----1-----------1--|
-----------------------|---------------------|----------------------|


  H        E  E  E  E     Q    Q    Q.     E     H        E  E  E  E   
-----------------------|----------------------|-----------------------|
-----------------------|----------------------|-----------------------|
--3--------2--------0--|--0-------------------|--1--------------------|
--2-----------1--2-----|-------0----3---------|--3--------2--------0--|
--4-----------------0--|--5----7-----------3--|--2-----------1--2-----|
--5--------------------|----------------------|--------------------6--|


  Q    Q    E  E  E  E     H        Q    E  E     Q    H        E  E   
------------------------|----------------------|----------------------|
------------------------|----------------------|----------------------|
------------------------|----------------------|----------------------|
--0------------------2--|--2--------0----------|----------------------|
------------3--0--3-----|----------------3-----|--3-------------------|
--7----7-------------5--|--3----------------3--|--2----2--------L--2--|


  H.           E  E     Q    H        E  E     H.           S S S S  
---------------------|----------------------|-----------------0-2-4-|
---------------------|----------------------|---------------3-------|
---------------------|--2-------------------|--1--------------------|
---------------------|--0-------------------|--0--------------------|
--2------------L-----|--2-------------------|--2--------------------|
--2------------L--2--|--0----0--------L--0--|--0----------------0---|


  H.           E  E     Q    Q    Q.     S S     H.           E   E   
--5------------L-----|--5---------3------5-7-|---8------------L------|
--5------------L-----|--3--------------------|---8------------L------|
--5------------L-----|--4--------------------|---9------------L------|
---------------------|-----------------------|-----------------------|
--0------------L--0--|--2----2-----------2---|-----------------------|
---------------------|-----------------------|--10------------L--10--|


  Q    Q    Q.     E     H        E  E  E  E     Q    Q    Q.     E   
--8---------6---------|--6--------5--------3--|--3----0----1---------|
--6-------------------|--5-----------4--5-----|--3---------1---------|
--7-------------------|--6--------------------|----------------------|
----------------------|-----------------------|--0----0--------------|
----------------------|--------------------0--|-------------------3--|
--8----8-----------8--|--5--------------------|----------------------|


  H        E  E  E  E     Q    Q    E  E  E  E     H        Q    E  E   
--1--------0-----------|---------------------0--|--0-------------------|
--3--------------0-----|------------1-----1-----|-----------3----1-----|
--------------3-----7--|--7---------0--2--------|--2-------------------|
-----------------------|--7---------------------|--3-------------------|
--2--------------------|--0----0----------------|----------------------|
--------------------6--|---------------------5--|--3----------------3--|


  Q    H        E  E     H        S S S S S S S S    Q    H        E  E   
----------------------|-------------------0-2-3-4-|--5-------------------|
--1-------------------|--0--------0-1-2-3---------|--5-------------------|
--2-------------------|--1------------------------|--4-------------------|
--2-------------------|--2------------------------|----------------------|
----------------------|---------------------------|----------------------|
--2----2--------L--2--|--2--------------------2---|--0----0--------L--0--|

                         Play bass notes with left hand only
  H.           E  S S    E   S  E   S  E   S  E   S  E   E    
--4------------L--2-4-|--5-----------------------------------|
--5------------L------|--5-----------------------------------|
--4------------L------|--5-----------------------------------|
----------------------|--------------------------------------|
----------------------|--0h--2h-3p--2p-0h--2h-3p--2p-0h--2h--|
--0------------L------|--------------------------------------|

              Roughly scratch string with fingernail. Kefka's Laugh!
  E   S  S    S    S  S    S    S  S    S   S  S   S   S  S  
------------------------------------------------------------|
------------------------------------------------------------|
------------------------------------------------------------|
-------------/xs~--x~-----/xs~--x~-----/xs~-x~----/xs~-x~---|
--0h--2h-3p--------2p-0h--------2h-3p-------2p-0h------2h---|
------------------------------------------------------------|


   S   S  S  S  S S  E   S  E   S  E   E    
-------------------------------------------|
-------------------------------------------|
-------------------------------------------|
--/xs~-x~----------------------------------|
---0h-----2h-3p---2p-0h--2h-3p--2p-0h--2h--|
-------------------------------------------|

                               D.S.
  E   S  E   S  E   S  E   S  E   E     E    
-------------------------------------|-----||
-------------------------------------|-----||
-------------------------------------|--2--||
-------------------------------------|--2--||
--0h--2h-3p--2p-0h--2h-3p--2p-0h--2--|--0--||
-------------------------------------|-----||




Duration Legend
---------------
W - whole
H - half
Q - quarter
E - 8th
S - 16th
T - 32nd
X - 64th
. - note dotted
|-n-|  - n-tuplets


Tablature Legend
----------------
L - tied note
h - hammer on
p - pull off
^ - brush up
D.S. - Go back to the place marked SEGNO
Login or Register to remove this ad.

8 comments on Dancing Mad - Tier 4

This is Birth of a God all

This is Birth of a God all over again. :|

That's INSANE.

5

That's INSANE.

"FURIOUSLY" so fitting

5

"FURIOUSLY"
so fitting

I REALLY want to see a

I REALLY want to see a recording now :D

damn.

5

damn.

Bye the way I nearly finished

Bye the way I nearly finished the game by now! Had started since the release of Tier 1 tab xd

Did you finish? Awesome game

Did you finish? Awesome game huh?

Life...dreams...hope? Where do they come from? Where do they go?

5

I approve. I'm a college classical guitarist and this is spectacular. Shame its not in the original key, but its overlook able. Excellent.