Login or Register to remove this ad.

Dancing Mad - Tier 3 (Final Fantasy VI) Guitar Tab

Submitted: Jan 30, 2012 by Kabukibear (Last updated: Jan 30, 2012)

4.714285
Average: 4.7 (7 votes)
Download | Listen
Game: Final Fantasy VI
Composer(s): Nobuo Uematsu
Style: Arrangement, Fingerstyle, Natural harmonics
Series: Final Fantasy

AutoScroll: Slow | Medium | Fast

Dancing Mad - Tier 3                               
~Final Fantasy VI~
Composed by: Nobuo Uematsu
Arranged by: Justin Lincoln

Drop D Tuning

bpm=160
                NH                                          NH                
     Q          W                    W                      W                 
E||-------|----------------------|--------------------|----------------------|
B||-------|----------------------|--------------------|----------------------|
G||-------|----------------------|--------------------|----------------------|
D||-------|--<>12----------------|---L----------------|--<>12----------------|
A||-------|----------------------|--------------------|----------------------|
D||--0----|-----L----------------|---0----------------|-----L----------------|


    E  E  E  E  E  E  E  E     Q.     E  E  E  E  E   
|------------------------0--|------------------------|
|---------------0--2--3-----|--7------------5--7--8--|
|*--2-----0--2--------------|---------6--7-----------|
|*-----4--------------------|------------------------|
|---------------------------|------------------------|
|---0-----------------------|--0---------------------|


   E   E  E   E   E  E  E  E     E   E  E  E  E  E  E  E   
------10--7--10---------------|------------7--5--3--2-----|
--10-------------10--8--7-----|--7--10--8--------------3--|
---------------------------9--|---------------------------|
------------------------------|---------------------------|
------------------------------|---------------------------|
---0--------------0-----------|--0------------0-----------|


  E  E  E  E  E  E  E  E     Q.     E  E  E  E  E     E  E  E  E  E  E  E  E   
--0-----------2--0--------|------------------------|-----0-----0--------------|
--------------------3--0--|--2------------------0--|--2-----3-----2--0-----0--|
-----------------------1--|--2------------1--2-----|--------------------2-----|
--------------0--2--4-----|---------2--4-----------|-----------------------0--|
--4--0--2--4--------------|------------------------|--------------0--2--4-----|
--------------------------|------------------------|-----2--4--6--------------|


  E  E  E  E  Q    Q       E  E  E  E  E  E  E  E     E  E  E  E  E  E  E  E   
------------------------|--------------------------|--------------------------|
--2-----0---------------|--7-----------------------|--8-----------0-----------|
-----2-----1--2---------|-----7--6--7-----7--6--7--|-----7--6--7-----7--6--7--|
--2-----0---------------|--0-----------7-----------|--0-----------------------|
--------------4----0----|--------------------------|--------------------------|
------------------------|--------------0-----------|--------------0-----------|


  E  E  E  E  E  E  E  E     E  E  E  E  E  E  E  E     H        E  E  Q     
--5-----------------------|--7-----------------------|-----------------0----|
--------------------------|--------------0-----------|--7--------8--7-------|
-----7--6--7-----7--6--7--|-----7--6--7-----7--6--7--|--7--------7----------|
--0-----------7-----------|--0-----------------------|--0--------0----------|
--------------------------|--------------------------|----------------------|
--------------0-----------|--------------0-----------|--0--------0----------|


  Q.     E  E  E  E  E     H        E  E  Q       Q.     E  H         
---------0-----0--------|-----------------0----|---------0-----------|
--7---------------7--8--|--7--------8--7-------|--7------------------|
--7---------7-----------|--7--------7----------|--7---------7--------|
--0---------------------|--0--------0----------|--0------------------|
------------------------|----------------------|---------------------|
--0---------------------|--0--------0----------|--0------------------|


  E  E  E  E  E  E  E  E     E  E  E  E  E  E  E  E   
--2-----------------------|--2-----------3-----------|
-----3--2--3-----3--2--3--|-----3--2--3-----3--2--3--|
--------------2-----0-----|--2-----------4-----2--0--|
--0-----2-----4-----------|--------4-----------------|
--------------------------|--------------------------|
--------------------------|--------------------------|


  E  E  E  E  E  E  E  E     E  E  E  E  E  E  E  E   
--2-----------3-----------|--2-----------3-----------|
-----3--2--3-----3--2--3--|-----3-----3-----3--0--2--|
--2-----------------0-----|--------2-----------------|
--------4-----2-----------|--4-----0-----------------|
--------------------------|--------------2-----4-----|
--------------------------|--------------------------|


  E  E  E  E  E  E  E  E     E  E  E  E  E  E  E  E   
--2-----------------------|--3-----------------------|
-----3--2--3-----3--2--3--|-----3--2--3--0--3--2--3--|
--------------2-----------|--------------------------|
--0-----------------------|--L-----------------------|
--------------------------|--------4-----2-----4-----|
--------------------------|--------------------------|


  E  E  E  E  E  E  E  E     E  E  E  E  E  E  E  E   
--5-----------------------|--7-----------------------|
-----3--2--3-----3--2--3--|--------------0--3--2--3--|
--------------2-----------|-----7--6--7--------------|
--0-----------------------|--L-----------------------|
--------------------------|--------------------------|
--------------------------|--------------------------|


  E  E  E  E  E  E  E  E     E  E  E  E  E  E  E  E   
--1-----------------------|--1-----------3-----------|
-----3--2--3-----3--2--3--|-----3--2--3-----3--2--3--|
--------------2-----0-----|--2-----------3-----2--0--|
--0-----2-----3-----------|--------3-----------------|
--------------------------|--------------------------|
--------------------------|--------------------------|


  E  E  E  E  E  E  E  E     E  E  E  E  E  E  E  E   
--1-----------3-----------|--5-----------3--0--------|
-----3--2--3-----3--2--3--|-----3-----3-----------2--|
--2-----------------0-----|--------2-----------2-----|
--------3-----2-----------|--3-----0-----------2-----|
--------------------------|--------------4-----------|
--------------------------|--------------------------|


  E  E  E  E  E  E  E  E     E  E  E  E  E  E  E  E   
--1-----------------------|--3-----------------------|
-----3--2--3-----3--2--3--|-----3--2--3-----3--2--3--|
--------------2-----------|--------------3-----------|
--0-----------------------|--L-----------------------|
--------------------------|--------4-----1-----4-----|
--------------------------|--------------------------|


  E  E  E  E  E  E  E  E     E  E  E  E  E  E  E  E   
--5-----------------------|--6-----------------------|
-----3--2--3-----3--2--3--|-----3--2--3-----3--2--3--|
--------------2-----------|--------------3-----------|
--0-----------------------|--L-----------------------|
--------------------------|--------------------------|
--------------------------|--------------------------|


  E  E  E  E  E  E  E  E     E  E  E  E  E  E  E  E   
--1-----------3--0-----3--|--5-----0-----6-----5--6--|
-----3--2--3--------6-----|-----6-----6-----8--------|
--------------------------|--------------0-----------|
--0-----------2-----------|--3-----------------------|
--------------------------|--------------------------|
--------------------------|--------------------------|


   Q     E  E  E   E  E   E      Q     Q     Q    E   E   
---8-------------------------|---------8-----9----8------|
---9----11--9--8-------------|---------9----11-------11--|
--10--------------10--8------|--------10----10-----------|
--10---------------------11--|--10----10-----8-----------|
-----------------------------|---------------------------|
-----------------------------|---------------------------|


                            |--3--|  |--3--|  |--3--|  |--3--|   
  E  E   E  E  Q    Q       E  E  E  E  E  E  E  E  E  E  E  E   
-------------------------|--------------------------------------|
--9--8-------------------|--------4--------4--------4--------4--|
--------10--8--6---------|-----3--------3--------3--------3-----|
--------------------3----|--1-----------------------------------|
-------------------------|-----------4--------2--------1--------|
-------------------------|--------------------------------------|


  |--3--|  |--3--|  |--3--|  |--3--|     |--3--|  |--3--|  |--3--|  |--3--|   
  E  E  E  E  E  E  E  E  E  E  E  E     E  E  E  E  E  E  E  E  E  E  E  E   
-----------4--------------------------|-----------1--------------------------|
--------4-----4-----------4--------4--|--------2-----2-----------2--------2--|
-----4-----------4-----4--------4-----|-----1-----------1-----1--------1-----|
--------------------------------------|--------------------1--------3--------|
--------------------1--------2--------|--4-----------------------------------|
--6-----------------------------------|--------------------------------------|


  |--3--|  |--3--|  |--3--|  |--3--|     |--3--|  |--3--|  |--3--|  |--3--|   
  E  E  E  E  E  E  E  E  E  E  E  E     E  E  E  E  E  E  E  E  E  E  E  E   
--------------------------------------|--------------------------------------|
--------2--------2--------2--------2--|--------0--------0--------0--------0--|
-----3--------3--------3--------3-----|--------------------------------------|
--4-----------------4--------2--------|-----4--------4--------4--------4-----|
-----------4--------------------------|--6--------4--------2--------0--------|
--------------------------------------|--------------------------------------|


  |--3--|  |--3--|  |--3--|  |--3--|                              
  E  E  E  E  E  E  E  E  E  E  E  E     E  E  E  E  E  E  E  E   
--------------------------------------|--------------------------|
--------0--------0--------0--------0--|--------------------------|
--------------1--------1--------1-----|--3-----------------------|
-----------------------------0--------|-----------0--1--0--1--3--|
-----7--------------2-----------------|--1--1--3-----------------|
--6--------2--------------------------|--------------------------|


  E  E  E  E  E  E  E  E     E  E  E  E  E  E  E  E   
--------------------------|-----4--2--4--0--------0--|
--------------0-----2-----|--0--------------4--2-----|
-----0--1--3-----1-----1--|--------------------------|
--4-----------------------|--------------------2-----|
--------4-----2-----1-----|--------2-----4-----------|
--------------------------|--6-----------------------|


  E  E  E  E  E  E  E  E     E  E  E  E  E  E  E  E   
-----------0--------------|--------------------0-----|
--4-----2-----4-----------|--0-----0--4--------------|
-----3-----------2--3--6--|--------------3--0-----8--|
--1--0--------------------|-----6--------------------|
--------4--2--1-----------|--------------------------|
-----------------1--5--8--|--6-----1-----5-----8-----|


  E  E  E  E  E  E  E  E     E  E  E  E  E  E  E  E   
--------------------------|--------------------------|
-----------------------4--|-----4-----4-----4-----4--|
-----8-----8-----8--3-----|--4-----3-----4-----5-----|
--6-----5-----6-----5-----|--4-----3-----2-----------|
--------------------------|--------------------6-----|
--6-----------------------|--------------------------|


  E  E  E  E  E  E  E  E     E  E  E  E  E  E  E  E     E  E  E  E  Q    Q     
-----4--3--4--------------|-----0-----0--------------|------------------------|
--2-----------4--2--0-----|--------4-----2--0--------|-----0-----0--2---------|
-----------------------3--|--1-----------------3-----|--------3----------3----|
--------------------------|-----------------------4--|--6---------------------|
--4-----------------------|--------------------------|------------------------|
--------------1-----------|--2-----------4-----------|--6-----2-----1----5----|


  W                   W                 
-------------------|--8----------------|
-------------------|--7----------------|
-------------------|--8----------------|
--6----------------|--7----------------|
-------------------|-------------------|
--6----------------|-------------------|


  |---3---|   |---3---|    |----3---|    |---3---|                        
  E   E   E   E   E   E    E   E    E    E   E   E      W                 
----------------------------------------------------|--------------------|
----------4S----------7S-----------10S----------13--|---L----------------|
------2S----------5S-----------8S-----------11------|--------------------|
--4S----------7S----------10S-----------13----------|--------------------|
----------------------------------------------------|--------------------|
----------------------------------------------------|--------------------|


  Q    H        Q       H.            
--L----8--------9----|--L------------|
-------7--------8----|--L------------|
-------8--------9----|--L------------|
-------7--------8----|--L------------|
---------------------|---------------|
---------------------|---------------|


  |---3---|   |---3---|    |----3---|    |---3---|                        
  E   E   E   E   E   E    E   E    E    E   E   E      W                 
----------------------------------------------------|--------------------|
----------5S----------8S-----------11S----------14--|---L----------------|
------3S----------6S-----------9S-----------12------|--------------------|
--5S----------8S----------11S-----------14----------|--------------------|
----------------------------------------------------|--------------------|
----------------------------------------------------|--------------------|


   Q    H         Q        W                    W                 
--------9--------10----|---L----------------|--10----------------|
---L----8---------9----|---L----------------|--10----------------|
--------9--------10----|---L----------------|---9----------------|
--------8---------9----|---L----------------|--------------------|
-----------------------|--------------------|---0----------------|
-----------------------|--------------------|--------------------|


                          ^                  
   W                      W                  
---9-----------------||--10----------------||
--10-----------------||--10----------------||
---9----------------*||--10----------------||
--------------------*||---0----------------||
---L-----------------||---0----------------||
---------------------||---0----------------||




Duration Legend
---------------
W - whole
H - half
Q - quarter
E - 8th
S - 16th
T - 32nd
X - 64th
. - note dotted
|-n-|  - n-tuplets


Tablature Legend
----------------
L - tied note
NH - natural harmonic
S - shift slide
^ - brush up
Login or Register to remove this ad.

10 comments on Dancing Mad - Tier 3

Now that I have re-arranged

After a lot of fooling around with this piece I've finally managed to get it to work as a solo instead of a duet. This means that all 4 tiers are complete for solo guitar! The tunings are normal and I think they are all quite playable with some work. Good luck!

It's like your first Suite

It's like your first Suite for guitar solo. Though, there's is no slow movement and one of them uses a different tuning. :|

Yeah, talk about frustrating.

Yeah, talk about frustrating. I really wanted this all in the same tuning but I just couldn't get tier 2 into drop D without it messing it all up and making it much harder than it needed to be. Ah well.

This is excellent.

5

This is excellent.

This is really nice, and I

5

This is really nice, and I like it for what it is. However, when I first saw Omnicide's solo arrangement, I understood why you originally made a duet. I'm kinda still standing by that mindset here based on the way some of this turned out from a playability standpoint. Other parts of this are really ace, though, I gotta say.

Despite the fact that I prefer your duet, I think this is probably the best that a Tier 3 solo guitar tab will get, and it is very impressive.

I think it's all pretty

I think it's all pretty playable really. Which parts are you talking about? I considered including an alternate, easier version for things like measure 21-36 and measure 51. Are those the sections you're talking about? If so I can upload the alternate versions for those part as well...

I think I may have jumped the

I think I may have jumped the gun on my previous comment a bit. Those measures you mentioned actually were the majority of what I was initially referring to. Most of 21-36 was wasn't that difficult at lower tempos, but there were some tricky parts. After spending a little more time with the trouble spots I had, I don't think they pose the problems that I originally thought.

Measure 51 is definitely hard, though, XD. I wouldn't mind having an alternate version of that lol.

The only other main issue I have is measure 43. It isn't really a playability issue, but more of making that transition in the middle of the measure sound good.

I think the really fast tempo + lots of finger movement is what gave me my initial impression of the playability. I don't think I'll be able to play it competently at full tempo without an outrageous amount of time put in, but I've changed my mind on it's playability. It is really well made, Kabuki.

Okay, I uploaded a new zip

Okay, I uploaded a new zip file which has an alternate version for those measures I talked about.

As far as the transition in the middle of measure 43, I do a 1/2 barre of the 4's with my pinky rather than play them with individual fingers if that helps at all.

I think that this is a really

I think that this is a really great compromise, Kabuki. Your original is really starting to win me over, but this is what I'll probably have to fall back to if I want to play it at full tempo lol XD.

HA! You did the battle after

5

HA! You did the battle after all!

And I can already declare the winner: me ^o^ and everyone else who loves videogames and classic guitar! We're now having 9 more really great tabs. one even more incredibly awesome then the other which means many hours of playing :D
you all have my deepest gratitude =)