Login or Register to remove this ad.

Dancing Mad - Tier 3 (Final Fantasy VI) Guitar Tab

Submitted: Jan 18, 2012 by Kabukibear

4.833335
Average: 4.8 (6 votes)
Download | Listen
Game: Final Fantasy VI
Composer(s): Nobuo Uematsu
Style: 2 or more instruments, Arrangement, Fingerstyle, Natural harmonics
Series: Final Fantasy

AutoScroll: Slow | Medium | Fast
Dancing Mad - Tier 3                               
~Final Fantasy VI~
Composed by: Nobuo Uematsu
Arranged by: Justin Lincoln

Drop D Tuning

Guitar 1

                            NH                                     
     W                      W                    W                 
E||-------------------|----------------------|--------------------|
B||-------------------|----------------------|--------------------|
G||-------------------|----------------------|--------------------|
D||-------------------|--<>12----------------|---L----------------|
A||-------------------|----------------------|--------------------|
D||-------------------|----------------------|--------------------|


     NH                                                                      
     W                     E  E  E  E  E  E  E  E     Q.     E  E  E  E  E   
----------------------||------------------------0--|------------------------|
----------------------||---------------0--2--3-----|--7---------------7--8--|
----------------------||*--2-----0--2--------------|---------6--7--9--------|
--<>12----------------||*-----4--------------------|------------------------|
----------------------||---------------------------|------------------------|
----------------------||---------------------------|------------------------|


   E   E  E   E   E  E  E  E     E   E  E   E   E  E   E  E   
------10--7--10---------------|------------------------------|
--10-------------10--8--7-----|--7--10--8--12--10--8---------|
---------------------------9--|-----------------------11--7--|
------------------------------|------------------------------|
------------------------------|------------------------------|
------------------------------|------------------------------|


  H        E  E  E  E     Q.     E  E  E   E  E   
--0--------2--0--------|---------0------------7--|
-----------------3--0--|--2---------7--9--10-----|
-----------------------|-------------------------|
-----------------------|-------------------------|
-----------------------|-------------------------|
-----------------------|-------------------------|


  E   E   E   E  E   E   E   E     E   E  E  E   H         
--9--12--10--12--9--------------|--9------7---------------|
--------------------12--10--12--|-----10-----9--10--------|
--------------------------------|-------------------------|
--------------------------------|-------------------------|
--------------------------------|-------------------------|
--------------------------------|-------------------------|


  E  E  E  E  E  E  E  E     E  E  E  E  E  E  E  E   
--------------------------|--------------------------|
--7-----------------------|--8-----------0-----------|
-----7--6--7-----7--6--7--|-----7--6--7-----7--6--7--|
--------------7-----------|--------------------------|
--------------------------|--------------------------|
--------------------------|--------------------------|


  E  E  E  E  E  E  E  E     E  E  E  E  E  E  E  E     H        E  E  Q     
--5-----------------------|--7-----------------------|-----------------0----|
--------------------------|--------------0-----------|--7--------8--7-------|
-----7--6--7-----7--6--7--|-----7--6--7-----7--6--7--|--7--------7----------|
--------------7-----------|--------------------------|--0-------------------|
--------------------------|--------------------------|----------------------|
--------------------------|--------------------------|----------------------|


  Q.     E  E  E  E  E     H        E  E  Q       Q.     E  H         
---------0-----0--------|-----------------0----|---------0-----------|
--7---------------7--8--|--7--------8--7-------|--7------------------|
--7---------7-----------|--7--------7----------|--7---------7--------|
--0---------------------|--0-------------------|--0------------------|
------------------------|----------------------|---------------------|
------------------------|----------------------|---------------------|


  E  E  E  E  E  E  E  E     E  E  E  E  E  E  E  E   
--------------------------|--------------------------|
--7-----------------------|--7-----------8-----------|
-----7--6--7-----7--6--7--|-----7--6--7-----7--6--7--|
--------------7-----------|--------------------------|
--------------------------|--------------------------|
--------------------------|--------------------------|


  E  E  E  E  E  E  E  E     E  E  E  E  E  E  E  E   
--------------------------|--------------------------|
--7-----------8-----------|--7-----------8-----0-----|
-----7--6--7-----7--6--7--|-----7-----7-----7-----6--|
--------------------------|--------7-----------------|
--------------------------|--------------------------|
--------------------------|--------------------------|


  E  E  E  E  E  E  E  E     E  E  E  E  E  E  E  E   
--------------------------|--------------------------|
--7-----------------------|--8-----------0-----------|
-----7--6--7-----7--6--7--|-----7--6--7-----7--6--7--|
--------------7-----------|--------------------------|
--------------------------|--------------------------|
--------------------------|--------------------------|


  E  E  E  E  E  E  E  E     E  E  E  E  E  E  E  E     Q    Q    Q    Q     
--5-----------------------|--7-----------------------|----------------------|
--------------------------|--------------0-----------|----------------------|
-----7--6--7-----7--6--7--|-----7--6--7-----7--6--7--|-----------------0----|
--------------7-----------|--------------------------|--0----2----3---------|
--------------------------|--------------------------|----------------------|
--------------------------|--------------------------|----------------------|


  Q    Q    Q    E  E     Q    Q    Q    Q       Q    Q    Q    Q     
-----------------------|----------------------|----------------------|
-----------------------|----------------------|----------------------|
--2---------3----2--0--|--2--------------0----|----------------------|
-------3---------------|-------3----2---------|--3----0---------2----|
-----------------------|----------------------|------------4---------|
-----------------------|----------------------|----------------------|


  W                   Q    Q    Q    Q       W                 
-------------------|----------------------|-------------------|
-------------------|----------------------|-------------------|
-------------------|----------------------|-------------------|
--0----------------|--L-------------------|--0----------------|
-------------------|-------4----1----4----|-------------------|
-------------------|----------------------|-------------------|


  W                   E  E  E  E  E  E  E  E     E  E  E  E  E  E  E  E   
-------------------|--1-----------3--0--1--3--|--5-----------6-----5--6--|
-------------------|-----3--2--3--------------|-----6--5--6-----8--------|
-------------------|--------------------------|--------------------------|
--L----------------|--------------------------|--------------------------|
-------------------|--------------------------|--------------------------|
-------------------|--------------------------|--------------------------|


  Q    E  E  E  E  E  E     Q    Q    Q    Q       H.           Q     
--8----6--4--------------|-------1----1---------|--------------------|
-------------8--6--4-----|-------1--------------|---------------6----|
----------------------6--|--5----1----3---------|--------------------|
-------------------------|------------3---------|--------------------|
-------------------------|-------3----1---------|--------------------|
-------------------------|----------------------|--------------------|


  |--3--|  |--3--|  |--3--|  |--3--|     |--3--|  |--3--|  |--3--|  |--3--|   
  E  E  E  E  E  E  E  E  E  E  E  E     E  E  E  E  E  E  E  E  E  E  E  E   
--------6--------6--------6--------6--|--------7--------7--------7--------7--|
-----8--------8--------8--------8-----|-----9--------9--------9--------9-----|
--8--------8--------8--------8--------|--8--------8--------8--------8--------|
--------------------------------------|--------------------------------------|
--------------------------------------|--------------------------------------|
--------------------------------------|--------------------------------------|


  |--3--|  |--3--|  |--3--|  |--3--|     |--3--|  |--3--|  |--3--|  |--3--|   
  E  E  E  E  E  E  E  E  E  E  E  E     E  E  E  E  E  E  E  E  E  E  E  E   
--------4--------4--------4--------4--|--------6--------6--------6--------6--|
-----6--------6--------6--------6-----|-----7--------7--------7--------7-----|
--6--------6--------6--------6--------|--6--------6--------6--------6--------|
--------------------------------------|--------------------------------------|
--------------------------------------|--------------------------------------|
--------------------------------------|--------------------------------------|


  |--3--|  |--3--|  |--3--|  |--3--|     |--3--|  |--3--|  |--3--|  |--3--|   
  E  E  E  E  E  E  E  E  E  E  E  E     E  E  E  E  E  E  E  E  E  E  E  E   
--------2--------2--------2--------2--|--------4--------4--------4--------4--|
-----4--------4--------4--------4-----|-----5--------5--------5--------5-----|
--4--------4--------4--------4--------|--4--------4--------4--------4--------|
--------------------------------------|--------------------------------------|
--------------------------------------|--------------------------------------|
--------------------------------------|--------------------------------------|


  E  E  E  E  E  E  E  E     E  E  E  E  E  E  E  E   
--------------------------|--------------------------|
--------------------------|--------------0-----2-----|
--3-----------------------|-----0--1--3-----1-----1--|
-----------0--1--0--1--3--|--4-----------------------|
-----1--3-----------------|--------------------------|
--------------------------|--------------------------|


  E  E  E  E  E  E  E  E     E  E  E  E  E  E  E  E   
-----4--2--4--0--------0--|-----------0--------------|
--0--------------4--2-----|--4-----2-----4--------2--|
--------------------------|-----3-----------2--3-----|
--------------------------|--------------------------|
--------------------------|--------------------------|
--------------------------|--------------------------|


  E  E  E  E  E  E  E  E     H        Q    Q       Q    Q    Q    Q     
--------------------0-----|---------------------|----------------------|
--0-----0--4-----------4--|---------------------|----------------------|
-----1--------3--0--------|----------------0----|----------------------|
--------------------------|---------------------|--4----3----2----1----|
--------------------------|---------------------|----------------------|
--------------------------|--6------------------|----------------------|


  H        H           H        H           Q    Q    Q    Q     
--------------------|--------------------|----------------------|
--------------------|--------------------|----------------------|
--------------------|--------------------|----------------------|
--------------------|--------------------|----------------------|
--4-----------------|--------------------|----------------------|
-----------1--------|--2--------4--------|--6----2----1----5----|


                                             ^    ^     ^     ^   
  W                   W                   E  Q    Q     Q     E   
-------------------|--8----------------|-----5----8----11----14--|
-------------------|--7----------------|-----4----7----10----13--|
-------------------|--8----------------|-----5----8----11----14--|
-------------------|-------------------|-------------------------|
-------------------|-------------------|-------------------------|
--6----------------|-------------------|-------------------------|


  W                   Q    H        Q       H.            
--L----------------|-------8--------9----|--L------------|
--L----------------|-------7--------8----|--L------------|
--L----------------|-------8--------9----|--L------------|
-------------------|---------------------|---------------|
-------------------|---------------------|---------------|
-------------------|---------------------|---------------|


     ^    ^     ^     ^                                              
  E  Q    Q     Q     E     W                   Q    H         Q     
-----6----9----12----15--|--L----------------|-------9--------10----|
-----5----8----11----14--|--L----------------|-------8---------9----|
-----6----9----12----15--|--L----------------|-------9--------10----|
-------------------------|-------------------|----------------------|
-------------------------|-------------------|----------------------|
-------------------------|-------------------|----------------------|


   W                    W                    W                   
---L----------------|--10----------------|---9-----------------||
---L----------------|--10----------------|--10-----------------||
---L----------------|---9----------------|---9----------------*||
--------------------|--------------------|--------------------*||
--------------------|--------------------|---------------------||
--------------------|--------------------|---------------------||


   ^                  
   W                  
--10----------------||
--10----------------||
--10----------------||
--------------------||
--------------------||
--------------------||




Duration Legend
---------------
W - whole
H - half
Q - quarter
E - 8th
S - 16th
T - 32nd
X - 64th
. - note dotted
|-n-|  - n-tuplets


Tablature Legend
----------------
L - tied note
^ - brush up

=========================================================================================

Dancing Mad - Tier 3                               
~Final Fantasy VI~
Composed by: Nobuo Uematsu
Arranged by: Justin Lincoln

Drop D Tuning

Guitar 2

     W                   W                   W                 
E||-------------------|-------------------|-------------------|
B||-------------------|-------------------|-------------------|
G||-------------------|-------------------|-------------------|
D||--0----------------|--L----------------|--0----------------|
A||-------------------|-------------------|-------------------|
D||--0----------------|--L----------------|--0----------------|


  W                     W                   W                 
-------------------||--------------------|-------------------|
-------------------||--------------------|-------------------|
-------------------||*-------------------|-------------------|
--L----------------||*--0----------------|--0----------------|
-------------------||--------------------|-------------------|
--L----------------||---0----------------|--0----------------|


  Q    H        Q       Q    H        Q       E  E  E  E  E  E  E  E   
---------------------|---------------------|--------------------------|
---------------------|---------------------|--------------------------|
---------------------|---------------------|-----------------------1--|
-------0--------0----|--L----0--------0----|--------------0--2--4-----|
---------------------|---------------------|--4--0--2--4--------------|
-------0--------0----|--L----0--------0----|--------------------------|


  Q.     H        E     E  E  E  E  E  E  E  E     Q    Q    Q    Q     
---------------------|--------------------------|--0-------------------|
---------------------|-----------------0--2--3--|-------3----2---------|
--2------------------|-----------1--2-----------|-----------------2----|
---------------------|-----2--4-----------------|----------------------|
---------------------|--------------------------|----------------------|
---------------------|--------------------------|----------------------|


  H        H           H        H           H        H         
--------------------|--------------------|--------------------|
--------------------|--------------------|--------------------|
--------------------|--------------------|--------------------|
--0-----------------|--0-----------------|--0-----------------|
--------------------|--------------------|--------------------|
-----------0--------|-----------0--------|-----------0--------|


  H        H           H        E  E  Q       H        H         
--------------------|----------------------|--------------------|
--------------------|-----------0----------|--------------------|
--------------------|--2--------0--2--0----|--2-----------------|
--0-----------------|--4--------------2----|--4-----------------|
--------------------|----------------------|--------------------|
-----------0--------|--0--------0----------|--0-----------------|


  H        E  E  Q       H        H           Q    Q    Q    Q     
----------------------|--------------------|----------------------|
-----------0----------|--------------------|----------------------|
--2--------0--2--0----|--2-----------------|-----------------0----|
--4--------------2----|--4-----------------|--0----2----4---------|
----------------------|--------------------|----------------------|
--0--------0----------|--0-----------------|----------------------|


  Q    Q    Q    E  E     Q    Q    Q    Q       Q    Q    Q    Q     
-----------------------|----------------------|----------------------|
------------0----------|----------------------|----------------------|
--2--------------2--0--|--2--------------0----|----------------------|
-------4---------------|-------4----2---------|--4----0--------------|
-----------------------|----------------------|------------2----4----|
-----------------------|----------------------|----------------------|


  W                   Q    Q    Q    Q       W                 
-------------------|----------------------|-------------------|
-------------------|----------------------|-------------------|
-------------------|----------------------|-------------------|
--0----------------|--L-------------------|--0----------------|
-------------------|-------4----2----4----|-------------------|
-------------------|----------------------|-------------------|


  W                   E  E  E  E  E  E  E  E     E  E  E  E  E  E  E  E   
-------------------|--1-----------------------|--1-----------3-----------|
-------------------|-----3--2--3-----3--2--3--|-----3--2--3-----3--2--3--|
-------------------|--------------2-----------|--------------------------|
--L----------------|--------------------------|--------------------------|
-------------------|--------------------------|--------------------------|
-------------------|--------------------------|--------------------------|


  E  E  E  E  E  E  E  E     E  E  E  E  E  E  E  E   
--1-----------3-----------|--5-----------3--0--------|
-----3--2--3-----3--2--3--|-----3-----3-----------2--|
--------------------------|--------2-----------2-----|
--------------------------|--------------------------|
--------------------------|--------------------------|
--------------------------|--------------------------|


  E  E  E  E  E  E  E  E     E  E  E  E  E  E  E  E   
--1-----------------------|--3-----------------------|
-----3--2--3-----3--2--3--|-----3--2--3-----3--2--3--|
--------------2-----------|--------------3-----------|
--------------------------|--------------------------|
--------------------------|--------------------------|
--------------------------|--------------------------|


  E  E  E  E  E  E  E  E     E  E  E  E  E  E  E  E     H        H         
--5-----------------------|--6-----------------------|--------------------|
-----3--2--3-----3--2--3--|-----3--2--3-----3--2--3--|--------------------|
--------------2-----------|--------------3-----------|--------------------|
--------------------------|--------------------------|--0--------2--------|
--------------------------|--------------------------|-----------4--------|
--------------------------|--------------------------|--------------------|


  H        H           Q    H.              Q    Q    Q    E  E   
--------------------|--1-----------------|-------8----9----8--6--|
--------------------|--1-----------------|-----------------------|
-----------0--------|--1-----------------|-----------------------|
--3-----------------|--------------------|-----------------------|
--3--------1--------|--3-----------------|-----------------------|
--------------------|--------------------|-----------------------|


  E  E  E  E  Q    Q       Q    Q    Q    Q       H        Q    Q     
------------------------|----------------------|---------------------|
--9--8--6---------------|----------------------|---------------------|
-----------8--6---------|----------------------|---------------------|
------------------------|--1-------------------|---------------------|
-------------------4----|-------4----2----1----|-----------1----2----|
------------------------|----------------------|--6------------------|


  H        Q    Q       Q    Q    Q    Q       Q    Q    Q    Q     
---------------------|----------------------|----------------------|
---------------------|----------------------|----------------------|
---------------------|----------------------|----------------------|
-----------1----3----|--4---------4----2----|--1-------------------|
--4------------------|-------4--------------|-------4----2----0----|
---------------------|----------------------|----------------------|


  Q    Q    Q    Q       H        H           E  E  E  E  E  E  E  E   
----------------------|--------------------|--------------------------|
----------------------|--------------------|--------------------------|
----------------------|--------------------|--------------------------|
-----------------0----|--------------------|-----1-----1-----1-----1--|
------------2---------|--1-----------------|--------4-----2-----1-----|
--6----2--------------|--------------------|--------------------------|


  Q    Q    Q    Q       E  E  E  E  E  E  E  E     Q    Q    Q    Q     
----------------------|--------------------------|----------------------|
----------------------|--------------------------|----------------------|
----------------------|--------------------------|----------------------|
-----------------2----|--1--0--------------------|----------------------|
-------2----4---------|--------4--2--1--------1--|-----------------1----|
--6-------------------|-----------------1--5-----|--6----1----5---------|


  E  E  E  E  E  E  E  E     E  E  E  E  E  E  E  E   
--------------------------|--------------------------|
-----4-----4-----4-----4--|-----4-----4-----4-----4--|
--1-----0-----1-----3-----|--4-----3-----4-----5-----|
--------------------------|--------------------------|
--------------------------|--------------------------|
--------------------------|--------------------------|


  E  E  E  E  E  E  E  E     E  E  E  E  E  E  E  E     E  E  E  E  Q    Q     
-----4--3--4--------------|-----0-----0--------------|------------------------|
--2-----------4--2--0-----|--------4-----2--0--------|-----0-----0--2---------|
-----------------------3--|--1-----------------3-----|--1-----3----------3----|
--------------------------|-----------------------4--|------------------------|
--------------------------|--------------------------|------------------------|
--------------------------|--------------------------|------------------------|


                                          ^    ^    ^     ^     
  W                   W                   Q    Q    Q     Q     
-------------------|-------------------|-----------------------|
-------------------|--1----------------|-----------------------|
--1----------------|--2----------------|--2----5----8----11----|
-------------------|-------------------|--1----4----7----10----|
-------------------|-------------------|--3----6----9----12----|
-------------------|--4----------------|-----------------------|


   W                   Q    H        Q       H.            
--------------------|---------------------|---------------|
--------------------|-------1--------2----|--L------------|
---L----------------|-------2--------3----|--L------------|
---L----------------|---------------------|---------------|
---L----------------|---------------------|---------------|
--------------------|-------4--------5----|--L------------|


  ^    ^    ^    ^                                               
  Q    Q    Q    Q       W                   Q    H        Q     
----------------------|-------------------|---------------------|
------------5----8----|--L----------------|---------------------|
--3----6----3----6----|--L----------------|-------6--------7----|
--2----5----5----8----|--L----------------|---------------------|
--4----7--------------|-------------------|-------7--------8----|
----------------------|-------------------|-------5--------6----|


  W                   W                   W                   
-------------------|-------------------|--------------------||
-------------------|-------------------|--2-----------------||
--L----------------|--0----------------|--2----------------*||
-------------------|--2----------------|--2----------------*||
--L----------------|--0----------------|--0-----------------||
--L----------------|-------------------|--------------------||


  ^                  
  W                  
--1----------------||
--3----------------||
--2----------------||
--0----------------||
--0----------------||
--0----------------||




Duration Legend
---------------
W - whole
H - half
Q - quarter
E - 8th
S - 16th
T - 32nd
X - 64th
. - note dotted
|-n-|  - n-tuplets


Tablature Legend
----------------
L - tied note
^ - brush up
Login or Register to remove this ad.

7 comments on Dancing Mad - Tier 3

my mind has been blown from

5

my mind has been blown from all the dancing mad tabs lately, you kick ass

Sadly I never got this far,

Sadly I never got this far, but somehow I have the urge to finish the game.... NOW

My favorite tier! :-D

5

My favorite tier! :-D

The bees knees.

5

The bees knees.

yeah unfortunately I could

yeah unfortunately I could never get this one to work for solo guitar. So I went back and started arranging the other tiers for duets...but then stopped that as well.

T_T

Hey Kabuki ! Duets are as

Hey Kabuki ! Duets are as cool as solo guitar arrangements !

lolol, well I'm working on

lolol, well I'm working on Tier 4. I've actually gotten it to where I think it should be playable while still having a decent difficulty. It's obviously going to be tricky, but it shouldn't be unplayable at all with some practice.