Ads

Dancing Mad Tier 3 (Final Fantasy VI) Guitar Tab

Submitted: Feb 28, 2010 by auriplane (Last updated: May 04, 2012)

5
Average: 5 (7 votes)
Download | Listen
Game: Final Fantasy VI
Composer(s): Nobuo Uematsu
Style: 2 or more instruments, Alternate picking, Transcription
Series: Final Fantasy

AutoScroll: Slow | Medium | Fast
                             Final Fantasy VI - Dancing Mad Tier 3 GUITAR TAB
                                         Composed by Nobuo Uematsu
                         
                                   Tabbed by Auriplane ([email protected])


This is the melody part of Tier 3 from Dancing Mad.  That means it's only part of the whole song--this
is the classical organ part, transcribed for guitar!  I tabbed out all the other parts, too, which you
can find in the GP5 file.  If you can't open a GP5 file, you can download Tuxguitar.  If you can't or
don't want to use Tuxguitar, but want the other parts, please leave a comment asking for the rest of 
the parts in text format, and I will update the tab :-)



Rest for two measures at the beginning.


     S S S S S S S S E.  S S S S S    S S S S S S S S S S S S S S S S    Q    S S S S Q    Q
e |--------------------------------|--4-9-6-9-4---------4---6-4-------|-------------------------|
B |----------------4-6-------4-6-7-|------------7-6-4-6---7-----7-6---|--4----6-4---------------|
G |----------3-5-6-------5-6-------|--------------------------------6-|-----------6-3-5---------|
D |--6-3-4-6-----------------------|----------------------------------|-------------------------|
A |--------------------------------|----------------------------------|-------------------------|
E |--------------------------------|----------------------------------|-------------------------|


  S  S S  S S  S S  S S S  S S Q       S S S S S S S S S S S S S S S S    S S S S S S S S S S S S S S S S
----11-9-11-8---------8-------------|----------------------------------|------------------6---------------|
--------------11-9-11---9-11-8-9----|--6---------------7---------------|--9-------------------------------|
------------------------------------|----6-5-6---6-5-6---6-5-6---6-5-6-|----6-5-6---6-5-6---6-5-6---6-5-6-|
------------------------------------|----------6---------------8-------|----------6---------------8-------|
------------------------------------|----------------------------------|----------------------------------|
------------------------------------|----------------------------------|----------------------------------|


  Q    S S E  E.  S S S S S    Q    S S E  E.  S Q       S S S S S S S S S S S S S S S S
----------------------------|-------------------------|----------------------------------|
--6----7-6-4--6---4---4-6-7-|--6----7-6-4--6---4------|--6---------------6-------7-------|
--------------------6-------|--------------------6----|----6-5-6---6-5-6---6-5-6---6-5-6-|
----------------------------|-------------------------|----------6-----------------------|
----------------------------|-------------------------|----------------------------------|
----------------------------|-------------------------|----------------------------------|


  S S S S S S S S S S S S S S S S    S S S S S S S S S S S S S S S S    S S S S S S S S S S S S S S S S
----------------------------------|----------------------------------|------------------6---------------|
--6-------7-------6-------7-4-----|--6---------------7---------------|--9-------------------------------|
----6-5-6---6-5-6---6---6-------5-|----6-5-6---6-5-6---6-5-6---6-5-6-|----6-5-6---6-5-6---6-5-6---6-5-6-|
----------------------6-------8---|----------6---------------8-------|----------6---------------8-------|
----------------------------------|----------------------------------|----------------------------------|
----------------------------------|----------------------------------|----------------------------------|


  S S S S S S S S S S S S S S S S    S S S S S S S S S S S S S S S S    S S S S S S S S S S S S S S S S
----------------------------------|----------------------------------|----------------------------------|
--5---------------5-------7-------|--5-------7-------9-------7-------|--5---------------7---------------|
----6-5-6---6-5-6---6-5-6---6-5-6-|----6-5-6---6-5-6---6---6---8---5-|----6-5-6---6-5-6---6-5-6---6-5-6-|
----------6-----------------------|----------------------6-------6---|----------6---------------7-------|
----------------------------------|----------------------------------|----------------------------------|
----------------------------------|----------------------------------|----------------------------------|


  S S S S S S S S S S S S S S S S    S S S S S S S S S S S S S S S S    E  S S S S S S E  E
------------------5---------------|------------------4-------5---4-5-|--7--5-3------------7--|
--9-------------------------------|--5-------7-4-5-7---5-4-5---7-----|---------7-5-4---------|
----6-5-6---6-5-6---6-5-6---6-5-6-|----6-5-6-------------------------|---------------6-4-----|
----------6---------------7-------|----------------------------------|-----------------------|
----------------------------------|----------------------------------|-----------------------|
----------------------------------|----------------------------------|-----------------------|


                          |--3-| |--3-| |--3-| |--3-|    |--3-| |--3-| |--3-| |--3-|
  E  S S S S S S E  E     S S  S S S  S S S  S S S  S    S S  S S S  S S S  S S S  S
--8--7-5---------------|------------------------------|------------------------------|
---------8-7-5---------|----7-10---7-10---7-10---7-10-|----8-11---8-11---8-11---8-11-|
---------------7-5--5--|--7------7------7------7------|--7------7------7------7------|
-----------------------|------------------------------|------------------------------|
-----------------------|------------------------------|------------------------------|
-----------------------|------------------------------|------------------------------|


  |-3-| |-3-| |-3-| |-3-|    |--3-| |--3-| |--3-| |--3-|    |--3-| |--3-| |--3-| |--3-|
  S S S S S S S S S S S S    S S  S S S  S S S  S S S  S    S S  S S S  S S S  S S S  S
--------------------------|------------------------------|------------------------------|
----5-8---5-8---5-8---5-8-|----6-10---6-10---6-10---6-10-|------------------------------|
--5-----5-----5-----5-----|--5------5------5------5------|----7-10---7-10---7-10---7-10-|
--------------------------|------------------------------|--8------8------8------8------|
--------------------------|------------------------------|------------------------------|
--------------------------|------------------------------|------------------------------|


  |--3-| |--3-| |--3-| |-3-|
  S S  S S S  S S S  S S S S     S S S S S S S S    S S S  S  S S S  S
-----------------------------|-------------------|----------------8----|
---------------------------8-|--10---------------|--6-7-8-10-11-8---10-|
----8-12---8-12---8-12---8---|---------6-7-6-7-9-|---------------------|
--8------8------8------8-----|-----7-9-----------|---------------------|
-----------------------------|-------------------|---------------------|
-----------------------------|-------------------|---------------------|


   S  S  S  S  S  S  S  S     S  S  S  S  S  S  S  S     S  S  S  S  S  S  S  S
-----15-13-15-11-------11-|-----------11-10----------|-----------10-------11-10-|
--11-------------15-13----|--15-10-13----------10-13-|--11----11----10----------|
--------------------------|-----------------13-------|-----12----------11-------|
--------------------------|--------------------------|--------------------------|
--------------------------|--------------------------|--------------------------|
--------------------------|--------------------------|--------------------------|


   S  S  S  S  S  S  S  S     S  S  S  S  S  S  S  S     S  S  S  S  S  S  S  S
--------------------------|--------------------------|-----15-14-15-10----------|
-----15----15----15-10-15-|--11-15-10-15-11-15-12-15-|--13-------------13-11-10-|
--12----11----12----------|--------------------------|--------------------------|
--------------------------|--------------------------|--------------------------|
--------------------------|--------------------------|--------------------------|
--------------------------|--------------------------|--------------------------|


  S  S  S  S S  S  S S    S  S  S  S E   E     H            H
----11-10-11-8---------|-------------8------|-----------|------------|
--8------------11-10-6-|----11-10-11----10--|--8--------|--12--------|
-----------------------|--8-----------------|-----------|------------|
-----------------------|--------------------|-----------|------------|
-----------------------|--------------------|-----------|------------|
-----------------------|--------------------|-----------|------------|


  T  T T  T  T  T  T  T  Q       Q     Q        H           T  T  T  T  T  T  T  T  Q
------------------------13----|-------------|------------|-------------------------14----|
------------------12-15-------|-------12----|--13--------|-------------------13-16-------|
------------10-13-------------|-------------|------------|-------------11-14-------------|
-------9-12-------------------|-------------|------------|-------10-13-------------------|
--8-11------------------------|-------------|------------|--9-12-------------------------|
------------------------------|-------------|------------|-------------------------------|


  Q     Q        H            H            H            H
-------------|------------|------------|------------|------------|
-------13----|--14--------|---L--------|--14--------|--13--------|
-------------|------------|------------|------------|------------|
-------------|------------|------------|------------|------------|
-------------|------------|------------|------------|------------|
-------------|------------|------------|------------|------------|




Duration Legend
---------------
W - whole
H - half
Q - quarter
E - 8th
S - 16th
T - 32nd
. - note dotted
|-n-|  - n-tuplets


Tablature Legend
----------------
L - tied note

Login or Register to remove this ad.

2 comments on Dancing Mad Tier 3

This is great, I love it!

5

This is great, I love it! I've been waiting for a tab of this for a long time. But, if you don't mind, could you post parts 2 and 4 as well? Those are my favorites. :3

full tab

5

i love dancing mad and would love you to tab the rest plz