Ads

Dancing Mad (Tier 2) (Final Fantasy VI) Guitar Tab

Submitted: Jan 19, 2012 by Omnicide

5
Average: 5 (4 votes)
Download | Listen
Game: Final Fantasy VI
Composer(s): Nobuo Uematsu
Style: Arrangement, Fingerstyle
Series: Final Fantasy

AutoScroll: Slow | Medium | Fast
Dancing Mad Tier 2
Final Fantasy VI
Composed by Nobuo Uematsu
Arranged by William Geesdorf


CADGBE Tuning


      E  E  E  E  E  E  E  E     E  E  E  E  E  E  E  E        E  E  E  E  E  E  E  E   
E||---------------------------|---------------------------||---------------------------|
B||---------------------------|---------------------------||------2-----2-----2-----2--|
G||*--1-----1--0--1-----1--0--|--1-----1--0--1--0--4-----*||*--1-----1--0--1-----1--0--|
D||*--2-----2--1--2-----2--1--|--2-----2--1--2--1--0-----*||*--2-----2--1--2-----2--1--|
A||---------------------------|--------------------2------||---------------------------|
C||---1-----1-----1-----1-----|--1-----1-----1--0---------||---1-----1-----1-----1-----|


  E  E  E  E  E  E  E  E        E  E  E  E  E  E  E  E     E  E  E  E  E  E  E  E   
---------------------------||---------------------------|--------------------------|
-----2-----2-----2--3------||---------------------------|--------------------3-----|
--1-----1--0--1--0--4-----*||*-----6-----6-----6-----6--|-----6-----6-----6--4-----|
--2-----2--1--2--1--0-----*||*--6-----6--5--6-----6--5--|--6-----6--5--6--5--4-----|
--------------------2------||---4-----------4-----------|--4-----------4--3--2-----|
--1-----1-----1--0---------||---------8-----------8-----|--------8-----------------|


  E  E  E  E  E  E  E  E     E  E  E  E  E  E  E  E     E  E  E  E  E  E  E  E   
--------------------------|--------------------------|--------------------------|
--------------------------|--------------------3-----|--------------------------|
-----6-----6-----6-----6--|-----6-----6-----6--4-----|-----6-----6-----6-----6--|
--6-----6--5--6-----6--5--|--6-----6--5--6--5--4-----|--6-----6--5--6-----6--5--|
--4-----------4-----------|--4-----------4--3--2-----|--4-----------4-----------|
--------8-----------8-----|--------8-----------------|--------8-----------8-----|


  E  E  E  E  E  E  E  E     E  E  E  E  E  E  E  E     E  E  E  E  E  E  E  E   
--------------------------|--------------------------|--------------------------|
--------------------3-----|--------------------------|--------------------3-----|
-----6-----6-----6--4-----|-----6-----6-----6-----6--|-----6-----6-----6--4-----|
--6-----6--5--6--5--4-----|--6-----6--5--6-----6--5--|--6-----6--5--6--5--4-----|
--4-----------4--3--2-----|--4-----------4-----------|--4-----------4--3--2-----|
--------8-----------------|--------8-----------8-----|--------8-----------------|


  Q.     E  Q.     E     Q    E  E  E  E  E  E     Q.     E  Q.     E   
--2-------------------|--2----------------------|--2-------------------|
--2-------------------|--2----------1-----------|--2-------------------|
--1---------6---------|--1----6-----0-----------|--1---------6---------|
------------6---------|-------6-----0-----------|------------6---------|
------------4---------|-------4-----------------|------------4---------|
--1------1---------1--|--1-------1--0-----0--0--|--1------1---------1--|


  Q    E  E  E  E  E  E     Q.     E  Q.     E     Q    E  E  E  E  E  E   
--2----------------------|--5---------0---------|--5----0-----------------|
--2----------1-----------|--5---------0---------|--5----0-----4-----------|
--1----6-----0-----------|--4-------------------|--4----------3-----------|
-------6-----0-----------|------------2---------|-------2-----3-----------|
-------4-----------------|----------------------|-------------------------|
--1-------1--0-----0--0--|--4------4---------4--|--4-------4--3-----3--3--|

                       1st Ending                  2nd Ending
  Q.     E  Q.     E     Q    E  E  E  E  E  E       Q    E  E  E  E  E  E   
--5---------0---------|--5----0------------------||--5----0-----------------|
--5---------0---------|--5----0-----4------------||--5----0-----4-----------|
--4-------------------|--4----------3-----------*||--4----------3-----------|
------------2---------|-------2-----3-----------*||-------2-----3-----------|
----------------------|--------------------------||-------------------------|
--4------4---------4--|--4-------4--3-----3--3---||--4-------4--3-----3--3--|


  |--3--|  |--3--|   |---3--|   |--3--|     |---3--|  |---3--|  |--3--|  |--3--|   
  E  E  E  E  E  E   E   E  E   E  E  E     E  E   E  E  E   E  E  E  E  E  E  E   
--6--8--9-----6--9----------8---------8--|----------------------------------------|
-----------8---------9--11---------9-----|--8--9--11-----8--11--6--8--9-----6--9--|
--6----------------------------10--------|------------9------------------7--------|
--------------------10-------------------|--8-------------------6-----------------|
-----------------------------------------|----------------------------------------|
-----------------------------------------|----------------------------------------|


  S S S S S S S S S S S S S S S S    Q    E  E  E  S S E  E     E  E  E  E  E  S S E  E   
----------8---6---4---0-------4---|--------------------------|---------------------------|
--8---5-8-----------------6-------|--8-----------------------|---------------------------|
----5-------5---5---5---5---5---5-|----------------5---------|-----------0-----3---0-----|
--5---------------6---------------|--8----5--6--8----8-6--5--|--6-----3-----6----6----3--|
----------------------------------|--------------------------|--8-----6-----4------3-----|
----------------------------------|--------------------------|---------------------------|


                                         |--3--|   |--3--|                             
  E  E  E  E  E  S S E  E     E  E  Q    E  E  E   E  E  E     E  E   E  E  Q    Q     
-----1---------------------|--------5-----------------------|-------------------------|
--------3--4--6--8-6-------|--4-----7-------7---------------|--8-----12---------------|
--0-----------0------8--7--|--5-----8----------8------------|--7-----12---------------|
--------4-----0------5-----|--4-------------------10--7-----|--------12---------------|
--2-----3------------------|-----------------------------9--|--------10---------------|
---------------------7-----|--6-----0-----------------------|--7----------------------|


  S S  S  S  S  S S  S  E.  S S S  S  S     S  S S  S  S S S S S S S S S S S  S  
--8-------------------------------------|----------------------------------7----|
----8-----------------------------------|------------------9-7-9---------7---10-|
------10----------8------------------11-|--10------------8-------8-6-8-9--------|
---------10-11------11-10-------9-11----|-----10-8-10-11------------------------|
---------------11-----------8-9---------|---------------------------------------|
----------------------------------------|---------------------------------------|


  E  E  E  E  E  E  E  E     S S S S S S S S S S S S S S  S  S  
-----9--7-----0--5--------|--9-----------0---------------------|
--9--------7--------9-----|----9-7-----------0-----------------|
--8--6-----------------8--|--------6-7-----7-6---------5----12-|
--------9--8--7--4-----6--|--6-----6---7-6-7-------4-5---12----|
--------------------6-----|----------9---------2-4-5-7---------|
--------------------------|------------------------------11----|


   E  E  E  E   Q    Q       E   Q     H        E    
------9--7--9--10---------|-----12----10-----------||
------------7---8---------|-----10-----8-----------||
--13--8--7--8---7---------|-----10-----8-----------||
--11------------0---------|------------------------||
------------6-------------|------------------------||
--10--8--7----------------|-----10-----8-----------||




Duration Legend
---------------
W - whole
H - half
Q - quarter
E - 8th
S - 16th
T - 32nd
X - 64th
. - note dotted
|-n-|  - n-tuplets
Login or Register to remove this ad.

7 comments on Dancing Mad (Tier 2)

Hrmm... is there a trick to

5

Hrmm... is there a trick to play measures 5-12 smoothly ? It just seems my hands are missing some extra fingers :/

everything else is damn hard but somehow playable ^^

I already did that part this

I already did that part this way so it can be much more easier to play than what i originally planned...
My suggestion (as cliche as it is) is to play it slowly until you master it xD

fuck, it sounds so good with

5

fuck, it sounds so good with that drop c, but damn it looks hard to play

"My suggestion (as cliche as

"My suggestion (as cliche as it is) is to play it slowly until you master it xD"

I can't speak for Ennea, but I will begin the quest of mastering this tab as soon as you post a video of you playing it perfectly, at the speed you have the midi playing it. On top of that, if you can do it, I'll give you $20.

Kabukibear arrangement of Tier 2

Kabukibear arrangement of Tier 2 was more fast than mine so i don't think that my tab is impossible to play(at the midi speed)...
i already slowed it a bit so it can be more easy to play

I'm just saying, I'll pay you

Well I never claimed that *his* was playable at tempo. ;-)

well it's not impossible to

5

well it's not impossible to play, but the notes sounds kinda chopped of. You have to switch position as soon as you pluck the strings so the sound doesn't come out very well.. Thats what I meant with smooth ^^