Login or Register to remove this ad.

Dancing Mad - Tier 2 (Final Fantasy VI) Guitar Tab

Submitted: Jan 17, 2012 by Kabukibear

5
Average: 5 (8 votes)
Download | Listen
Game: Final Fantasy VI
Composer(s): Nobuo Uematsu
Style: Arrangement, Fingerstyle
Series: Final Fantasy

AutoScroll: Slow | Medium | Fast
Dancing Mad - Tier 2                               
~Final Fantasy VI~
Composed by: Nobuo Uematsu
Arranged by: Justin Lincoln


     Q    E  E  E  E  E  E     Q    E  E  E  E  Q       Q    E  E  E  E  E  E   
E||-------------------------|-------------------3----|-------------------------|
B||--5----5--4--5-----5--4--|--5----5--4--5--4--3----|--5----5--4--5-----5--4--|
G||--5----5--4--5-----5--4--|--5----5--4--5--4--3----|--5----5--4--5-----5--4--|
D||-------------------------|------------------------|-------------------------|
A||--0----------------------|--0---------------------|--0----------------------|
E||-------------------------|-------------------3----|-------------------------|


  Q    E  E  E  E  Q       E  S S E  E  E  S S E  E   
-------------------3----|-----5------5-----5------5--|
--5----5--4--5--4--3----|--5------5--4--5------5--4--|
--5----5--4--5--4--3----|--5------5--4--5------5--4--|
------------------------|----------------------------|
--0---------------------|--0------0-----0------0-----|
-------------------3----|----------------------------|


  E  S S E  E  E  E  Q       E  S S E  E  E  S S E  E   
-----5------5-----5--6----|-----5------5-----5------5--|
--5------5--4--5--4--3----|--5------5--4--5------5--4--|
--5------5--4--5--4--3----|--5------5--4--5------5--4--|
--------------------------|----------------------------|
--0------0-----0----------|--0------0-----0------0-----|
---------------------3----|----------------------------|

                      SEGNO
  E  S S E  E  E  E  Q         E  S S E  E  E  S S E  E   
-----5------5-----5--6----||------5------5-----5------5--|
--5------5--4--5--4--3----||---5------5--4--5------5--4--|
--5------5--4--5--4--3----||*--5------5--4--5------5--4--|
--------------------------||*----------------------------|
--0------0-----0----------||---0------------0------------|
---------------------3----||----------0------------0-----|


  E  S S E  E  E  E  Q       E  S S E  E  E  S S E  E   
-----5------5-----5--6----|-----5------5-----5------5--|
--5------5--4--5--4--3----|--5------5--4--5------5--4--|
--5------5--4--5--4--3----|--5------5--4--5------5--4--|
--------------------------|----------------------------|
--0------------0----------|--0------------0------------|
---------0--------4--3----|---------0------------0-----|


  E  S S E  E  E  E  Q       E  S S E  E  E  S S E  E   
-----5------5-----5--6----|-----5------5-----5------5--|
--5------5--4--5--4--3----|--5------5--4--5------5--4--|
--5------5--4--5--4--3----|--5------5--4--5------5--4--|
--------------------------|----------------------------|
--0------------0----------|--0------------0------------|
---------0--------4--3----|---------0------------0-----|


  E  S S E  E  E  E  Q       E  S S E  E  E  S S E  E   
-----5------5-----5--6----|-----5------5-----5------5--|
--5------5--4--5--4--3----|--5------5--4--5------5--4--|
--5------5--4--5--4--3----|--5------5--4--5------5--4--|
--------------------------|----------------------------|
--0------------0----------|--0------------0------------|
---------0--------4--3----|---------0------------0-----|


                             ^        ^           ^    ^    ^         
  E  S S E  E  E  E  Q       H        H           Q    Q    H         
-----5------5-----5--6----|--5-----------------|--5---------4--------|
--5------5--4--5--4--3----|--5-----------------|--5---------4--------|
--5------5--4--5--4--3----|--7-----------------|--7----7----6--------|
--------------------------|-----------7--------|-------7----6--------|
--0------------0----------|-----------5--------|-------5----4--------|
---------0--------4--3----|-----------5--------|-------5----4--------|


  ^        ^           ^    ^    ^            ^         ^         
  H        H           Q    Q    H            H         H         
--5-----------------|--5---------4--------|---8------------------|
--5-----------------|--5---------4--------|---8------------------|
--7-----------------|--7----7----6--------|--10------------------|
-----------7--------|-------7----6--------|------------10--------|
-----------5--------|-------5----4--------|-------------8--------|
-----------5--------|-------5----4--------|-------------8--------|


   ^     ^    ^            ^         ^            ^     ^    ^           
   Q     Q    H            H         H            Q     Q    H           
---8----------7--------|---8------------------|---8----------7---------||
---8----------7--------|---8------------------|---8----------7---------||
--10----10----9--------|--10------------------|--10----10----9--------*||
--------10----9--------|------------10--------|--------10----9--------*||
---------8----7--------|-------------8--------|---------8----7---------||
---------8----7--------|-------------8--------|---------8----7---------||

 accel...                                         rall....
  |--3--|  |--3--|  |--3--|  |--3--|     |--3--|  |--3--|  |--3--|  |--3--|   
  E  E  E  E  E  E  E  E  E  E  E  E     E  E  E  E  E  E  E  E  E  E  E  E   
--0--2--3-----0--3-----0--2--------2--|--------0--------0--------------------|
-----------2--------3--------0--3-----|--2--3--------2-----0--2--3-----0--3--|
--0-----------------------------------|-----------3-----------------1--------|
--------------------4-----------------|--2-----------------0-----------------|
--------------------------------------|--------------------------------------|
--------------------------------------|--------------------------------------|


  S S S S S S S S S S S S S S S S    Q    E  E  E  S S E  E   
----------2-2-0-2---2---2---2---2-|--------------------------|
--2-----2---------3-------0---3---|--2-----------------------|
------3---------------3-----------|--------------------------|
----4-------------0---------------|--2-------0--2--4-2-0-----|
--4-------------------------------|-------4---------------4--|
----------------------------------|--------------------------|


  Q    E  E  E  S S E  E     E  E  E  E  E  S S E  E   
--------------------------|---------------------------|
--------------------------|-----0--------0--2-0-------|
--------------------------|--------1--2---------2--1--|
--0----------0--2-0-------|---------------------------|
--2----0--4---------4--2--|--4------------------4-----|
-------------3------2-----|--1-----2-----4------------|


            |--3--|  |--3--|                         
  Q    Q    E  E  E  E  E  E     Q    H        Q     
------------------------------|---------------------|
-------4-------1--------------|-------6-------------|
--2----2----------2-----------|-------6-------------|
--4------------------4--1-----|-------6-------------|
--0----0-------------------3--|--4----4-------------|
-------2----------------------|--4----4-------------|

  bpm=110
  S S S S S S S S E.  S S S S S    S S S S S S S S S S S S S S S S  
--2-----------------------------|------------------------------1---|
----2-0-----------------------1-|--0-----------3-1-3---------1---4-|
----------0---2-0-----------0---|----------0-2-------2-0-2-3-------|
--------4---0-----4-------3-----|----4-2-4-------------------------|
----------------------2-3-------|----------------------------------|
--------------------------------|----------------------------------|


  E  E  E  E  E  E  E  E     S S S S S S S S S S S S S S S S  
-----3--1-----------------|--3-------------------------------|
--3--------1-----4--3-----|----3-1---------------------------|
--2--0--------3--------2--|--------0-1---3-1-0-------------6-|
--------3--2--1--------0--|--0-----0---1-0-1-3---------4-6---|
-----------------3--0-----|----------3-------------3-4-------|
--------------------------|--------------------1-3-4-6-------|

                                       DA SEGNO
  E  E  E  E  Q    Q       Q    H        Q       W                  
-----3--1--3--4---------|--6----4--------L----|--L----------------||
--0--------1--3---------|--4----2--------2----|--L----------------||
-----2--1--2--3---------|---------------------|-------------------||
------------------------|--3----0--------L----|--L----------------||
--2--0-----0--1---------|--2----0--------L----|--L----------------||
--------4---------------|---------------------|-------------------||




Duration Legend
---------------
W - whole
H - half
Q - quarter
E - 8th
S - 16th
T - 32nd
X - 64th
. - note dotted
|-n-|  - n-tuplets


Tablature Legend
----------------
L - tied note
^ - brush up
accel - gradually speed up
rit - gradually slow down
DA SEGNO - jump to the place marked SEGNO. Skip on second time.
Login or Register to remove this ad.

8 comments on Dancing Mad - Tier 2

Another one I found on the

Another one I found on the hard drive. I think I was waiting to post these until I finished all 4 tiers but never got around to finishing the last two.

This is pretty awesome,

5

This is pretty awesome, Kabuki!

I smell a battle

5

I smell a battle

hah well I'm out though. I

hah well I'm out though. I only managed to reduce tier 3 down to a duet. It would be preeeettty tough as a solo, much less tier 4.

i've never been so amused by

5

i've never been so amused by the sound of a midi before, forgot how silly tier two is.
OMNICIDE DO BATTLE

Ok xD

Ok xD

Nice, hombre. Upload the

5

Nice, hombre. Upload the duet of Tier 3!!!

I will when I get home, I

I will when I get home, I just finished the fingerings this morning but had to stop to go to work.