Login or Register to remove this ad.

Dancing Mad - Tier 1 (Final Fantasy VI) Guitar Tab

Submitted: Jan 16, 2012 by Kabukibear

5
Average: 5 (10 votes)
Download | Listen
Game: Final Fantasy VI
Composer(s): Nobuo Uematsu
Style: Arrangement
Series: Final Fantasy

AutoScroll: Slow | Medium | Fast
Dancing Mad - Tier 1                               
~Final Fantasy VI~
Composed by: Nobuo Uematsu
Arranged by: Justin Lincoln

Drop D Tuning


      |--3--|  |--3--|  |--3--|  |--3--|   
      E  E  E  E  E  E  E  E  E  E  E  E   
E||---------------------------------------|
B||---3-----------------------------------|
G||*--------------------------------------|
D||*-----------0--------------------------|
A||------------------------------0--------|
D||------0--0-----0--0--L--0--0-----0--0--|


  |--3--|  |--3--|  |--3--|  |--3--|     |--3--|  |--3--|  |--3--|  |--3--|   
  E  E  E  E  E  E  E  E  E  E  E  E     E  E  E  E  E  E  E  E  E  E  E  E   
--------------------------------------|--------------------------------------|
--1-----------------3-----------------|--4-----------------------------------|
--0-----------------2-----------------|--3-----------------------------------|
--3--------0--------2-----------------|--1--------0--------------------------|
-----------------------------0--------|-----------------------------0--------|
-----0--0-----0--0-----0--0-----0--0--|-----0--0-----0--0--L--0--0-----0--0--|


  |--3--|  |--3--|  |--3--|  |--3--|     |--3--|  |--3--|  |--3--|  |--3--|   
  E  E  E  E  E  E  E  E  E  E  E  E     E  E  E  E  E  E  E  E  E  E  E  E   
--------------------------------------|--------------------------------------|
--------------------------------------|--3-----------------------------------|
--------------------------------------|--------------------------------------|
-----------0--------------------------|-----------0--------------------------|
-----------------------------0--------|-----------------------------0--------|
--0--0--0-----0--0--L--0--0-----0--0--|-----0--0-----0--0--L--0--0-----0--0--|


  |--3--|  |--3--|  |--3--|  |--3--|     |--3--|  |--3--|  |--3--|  |--3--|   
  E  E  E  E  E  E  E  E  E  E  E  E     E  E  E  E  E  E  E  E  E  E  E  E   
--------------------------------------|--3-----------------------------------|
--1-----------------3-----------------|--4-----------------------------------|
--0-----------------2-----------------|--3-----------------------------------|
--3--------0--------2-----------------|-----------0--------------------------|
-----------------------------0--------|-----------------------------0--------|
-----0--0-----0--0-----0--0-----0--0--|-----0--0-----0--0--L--0--0-----0--0--|


  |--3--|  |--3--|  |--3--|  |--3--|       |--3--|  |--3--|  |--3--|  |--3--|   
  E  E  E  E  E  E  E  E  E  E  E  E       E  E  E  E  E  E  E  E  E  E  E  E   
---------------------------------------||--------------------------------------|
---------------------------------------||--------------------------------------|
--------------------------------------*||--------------------------------------|
-----------0--------------------------*||--0-----0--------0--------0--------0--|
-----------------------------0---------||-----0--------0--------0--------0-----|
--0--0--0-----0--0--L--0--0-----0--0---||--0--------0--------0--------0--------|


  H        H           H        Q    Q       H        H         
--------------------|---------------------|--1--------5--------|
--------------------|-----------1----3----|--3-----------------|
-----------2--------|--1--------1---------|--2--------5--------|
--3--------3--------|--3--------1---------|--------------------|
--5--------0--------|---------------------|--------------------|
--0-----------------|--3--------1---------|--0--------2--------|


                                                           |--3--|   
  H        Q     Q       H        H           H.           E  E  E   
--4--------8----10----|--0-----------------|------------------------|
--6-------------------|-----------0--------|--1---------------------|
--5--------8----------|-----------1--------|--2---------------------|
----------------------|-----------2--------|--3---------------------|
----------------------|--------------------|------------------------|
--3--------5----------|--2-----------------|---------------2--2--2--|


                                    |--3--|                        
  H        H           H.           E  E  E     H        H         
--0-----------------|------------------------|--------------------|
-----------3--------|--1---------------------|--3-----------------|
-----------4--------|--2---------------------|-----------2--------|
-----------5--------|--3---------------------|-----------3--------|
--------------------|------------------------|-----------5--------|
--2-----------------|---------------2--2--2--|--0-----------------|


               |--3--|                                            
  H.           E  E  E     H        H           W                 
------------------------|--------------------|-------------------|
--0---------------------|--3--------1--------|--0----------------|
--1---------------------|-----------2--------|--1----------------|
--2---------------------|-----------3--------|--2----------------|
------------------------|--------------------|-------------------|
---------------0--0--0--|--0-----------------|-------------------|


  ^                    ^                    ^                   
  H        H           H        H           H        Q    Q     
-----------1--------|--0-----------------|----------------0----|
--3-----------------|-----------3--------|--2--------3---------|
--2-----------------|--3-----------------|--0------------------|
--3-----------------|--5-----------------|--2------------------|
--------------------|--------------------|---------------------|
--0-----------------|--0-----------------|--0------------------|


  ^                   ^                    ^                  
  W                   H        H           H        H         
-------------------|--------------------|--------------------|
--3----------------|--1-----------------|--3-----------------|
--2----------------|--2-----------------|--3-----------------|
--3----------------|--3-----------------|--5-----------------|
-------------------|-----------0--------|--------------------|
--0----------------|--3-----------------|--5--------3--------|


  ^                     ^                   ^                  
  H        Q    Q       W                   H        H         
---------------------|-------------------|-----------1--------|
--2------------------|--3----------------|--3-----------------|
--2------------------|--2----------------|--2-----------------|
--5------------------|--3----------------|--3-----------------|
---------------------|-------------------|--------------------|
--2--------3----5----|--3----------------|--0-----------------|


  ^                    ^                     ^                    
  H        H           H        Q    Q       Q    Q    Q    Q     
--0-----------------|----------------0----|----------------------|
-----------3--------|--2--------3---------|--3-------------------|
--3-----------------|--0------------------|--2-------------------|
--5-----------------|--2------------------|--3---------0---------|
--------------------|---------------------|-------0---------3----|
--0-----------------|--0------------------|--0-------------------|

                                                bpm=190
  ^                      ^                                               
  Q    Q    Q    Q       H        H             E  E  E  E  E  E  E  E   
----------------------|--------------------||---------------------------|
--3-------------------|--2-----------------||---------------------------|
--3-------------------|--2-----------------||*-----0--2-----0--2--3--0--|
--3-------------------|--2-----------------||*--3--------3--0-----------|
--1----0--------------|-----------0--------||---------------------------|
------------5----3----|--2-----------------||---0-----------------------|


  E  E  E  E  E  E  E  E     E  E  E  E  E  E  E  E   
--------1-----0--------0--|--------------------------|
-----3-----3-----3--2-----|--------------------------|
--2-----------------------|-----0--2-----0--2--3--0--|
--------------------------|--3--------3--0-----------|
--------------------------|--------------------------|
--------------------------|--0-----0-----------------|


  E  E  E  E  E  E  E  E       E  E  E  E  E  E  E  E   
--------1-----0--------0---||-----5--6-----------------|
-----3-----3-----3--2------||--8--------8--5--6--8--5--|
--2-----------------------*||--------------------------|
--0-----------------------*||--------------------------|
--------------4------------||--------------------------|
---------------------------||--5-----------------------|


  E  E  E  E  E  E  E  E     E  E  E  E  E  E  E  E   
--------0-----------------|-----0--1-----------------|
--2--3-----2-----0--2-----|--3--------3--------3-----|
--------------2--------2--|--------------3--5-----3--|
--------------------------|--------------------------|
--0-----------------------|--1-----------------------|
--------------------------|--------------5-----------|


  E  E  E  E  E  E  E  E     E  E  E  E  E  E  E  E   
--------------------------|--------------------------|
--------------------------|--------------------------|
--0--2--3--0--------0-----|-----0--2-----0--2--3--0--|
--------------2--3-----2--|--3--------3--0-----------|
--------------4-----------|--------------------------|
--2-----------------------|--0-----------------------|


  E  E  E  E  E  E  E  E     E  E  E  E  E  E  E  E   
--------1-----0--------0--|--------------------------|
-----3-----3-----3--2-----|--------------------------|
--2-----------------------|-----0--2-----0--2--3--0--|
--------------------------|--3--------3--0-----------|
--------------------------|--------------------------|
--------------------------|--0-----0-----------------|


  E  E  E  E  E  E  E  E     E  E  E  E  E  E  E  E   
--------1-----0--------0--|--------------------------|
-----3-----3-----3--2-----|--------------------------|
--2-----------------------|-----0--2-----0--2--3--0--|
--0-----------------------|--3--------3--0-----------|
--------------4-----------|--------------------------|
--------------------------|--0-----------------------|


  E  E  E  E  E  E  E  E     E  E  E  E  E  E  E  E   
--------1-----0--------0--|--------------------------|
-----3-----3-----3--2-----|--------------------------|
--2-----------------------|-----0--2-----0--2--3--0--|
--------------------------|--3--------3--0-----------|
--------------------------|--------------------------|
--------------------------|--0-----0-----------------|

                     Da Capo
                             ^                  
  E  E  E  E  E  E  E  E     W                  
--------1-----0--------0--|-------------------||
-----3-----3-----3--2-----|--3----------------||
--2-----------------------|--2----------------||
--0-----------------------|--3----------------||
--------------4-----------|--0----------------||
--------------------------|--0----------------||




Duration Legend
---------------
W - whole
H - half
Q - quarter
E - 8th
S - 16th
T - 32nd
X - 64th
. - note dotted
|-n-|  - n-tuplets


Tablature Legend
----------------
L - tied note
x - dead note
g - grace note
(n) - ghost note
> - accentuded note
NH - natural harmonic
AH - artificial harmonic
TH - tapped harmonic
SH - semi harmonic
PH - pitch harmonic
h - hammer on
p - pull off
b - bend
br - bendRelease
pb - preBend
pbr - preBendRelease
brb - bendReleaseBend
\n/ - tremolo bar dip
\n - tremolo bar dive
-/n - tremolo bar Release up
/n\ - tremolo bar inverted dip
/n - tremolo bar return
-\n - tremolo bar Release down
S - shift slide
s - legato slide
/ -  slide into from below or out of upwards
\ -  slide into from above or out of downwards
~ - vibrato
W - wide vibrato
tr - trill
TP - tremolo picking
T - tapping
S - slap
P - pop
< - fade in
^ - brush up
v - brush down
Login or Register to remove this ad.

4 comments on Dancing Mad - Tier 1

Not trying to step on any

Not trying to step on any toes here...just seeing the other tab reminded me that I hadn't uploaded this even though it's been done for like two years.

Two amazing tabs of Dancing

5

Two amazing tabs of Dancing Mad in one day?! What did we do to deserve this? Are you too going to tab the entire song?

no offense to omni in any way

5

no offense to omni in any way shape or form, but i prefer your tab kabuki... i feel it flows better to me.

omnis tab is effing awesome though, very accurately written, but your style just appelas to me more in the way of playing it i guess

Great as always!

5

Great as always!