Ads

Cyan (Final Fantasy VI) Guitar Tab

Submitted: Nov 06, 2012 by N0Stars

5
Average: 5 (2 votes)
Download | Listen
Game: Final Fantasy VI
Composer(s): Nobuo Uematsu
Style: Arrangement, Fingerstyle, Percussion
Series: Final Fantasy

AutoScroll: Slow | Medium | Fast
Final Fantasy VI - Cyan's Theme

Composed by Nobuo Uematsu

Arranged for Guitar by N0Stars

Gtr I (C A D G B E), (Optional: Capo on 3rd Fret)

  Q=90
  Gtr I
                       |-3-|
   H   Q  Q      E E E S S S E E E E
|---------5--||--3---------------2------|
|------5-----||o-3---------------3-3----|
|------------||--------2-2-2-----2------|
|------------||--------2-2-2------------|
|------------||o-0-0-x-0-0-0-0-0-0------|
|------------||-------------------------|


        |-3-|                 |-3-|
  E E E S S S E E E E   E E E S S S E E S S E    E E E E Q  Q
|-0---------------0-5-|-7-3-------------2-0----|-0-------0--5----|
|-----------------3---|-0-------------------3--|-----------------|
|-2-----2-2-2-----2---|-0-----2-2-2------------|-2-------2-------|
|-------2-2-2---------|-------2-2-2------------|---------2-------|
|-0-0-x-0-0-0-0-0-0---|-0-0-x-0-0-0-0-0-0---0--|-0-0-x-0-0-------|
|---------------------|------------------------|-----------------|


                                                  1.
        |-3-|                     |-3-|                 |-3-|
  E E E S S S E E S S S S   E E E S S S E E E E   E E E S S S E E E E
|-3---------------2-0---2-|-0-------------------|----------------------|
|-3-------------------3---|-----------------0-1-|-3-------------1-0----|
|-------2-2-2-------------|-2-----2-2-2---2-----|-2-----2-2-2-------0--|
|-------2-2-2-------------|-------2-2-2---------|-------2-2-2----------|
|-0-0-x-0-0-0-0-0-0---0---|-0-0-x-0-0-0-0---0---|-0-0-x-0-0-0-0---0----|
|-------------------------|---------------------|----------------------|


        |-3-|
  E E E S S S E E Q    Q  Q  Q  Q    E E E E H      Q  Q  Q  Q
|--------------------|-3--2-----2--|-3-2---2------|-3--2--5--2--|
|--------------------|-3-----3-----|-3---3---5----|-3-----------|
|-2-----2-2-2--------|-2-----2-----|-2-------2----|-2-----2-----|
|-2-----2-2-2--------|-2-----2-----|-2-------2----|-2-----2-----|
|-0-0-x-0-0-0-0-0-x--|-0-----0-----|-0-------0----|-0-----0-----|
|--------------------|-------------|--------------|-------------|


  E E E E Q  E E   S S S S E  S S  E E E E   S S Q   S S E  E  E E
|-3-2-5-2------7-|-7---8---5---------------|-0---3------------------|
|-3-------5----0-|-6-----------------------|-1----------------------|
|-2---2---2----0-|-5-----5-----------5-7-5-|----------------0-------|
|-2---2---2------|---7-----------------5---|---2---------2-----2----|
|-0---0---0------|-------------------------|---------------------3--|
|------------7---|-5----------5-5--5---5---|-0-------0-0-0-----0----|


  S S S S E S S  Q  E E   S S S S E  S S E E E E   S S S S E S S E E E E
|-7---8---5-----10--8-7-|-5---7---3--------------|-7---8---5--------------|
|-6-----------------6---|-5-----5--------------0-|-6----------------------|
|-5-----5---------------|-5-5----------------0---|-5-----5---------5-7-5--|
|---7-------------------|------------------2-----|---7---------------5----|
|-----------------------|----------------3-------|------------------------|
|-5---------5-5--5--5---|-0----------0-0-0---4---|-5---------5-5-5---5----|


  S S Q  S S E E E E   S  S S  S  E  S S Q  E E   Q.   S S  Q  Q
|-0---3--------------|--------------------------|--------------5----||
|-1--------------0-1-|-8----9---------------4-6-|-8---------5------o||
|--------------0-----|-----------10-------------|-7-----------------||
|---2--------2-------|--------10----------------|-5-----------------||
|--------------------|---10--------------4--4---|------------------o||
|-0------0-0-0---0---|-8-------------8-8--------|-7----7-7--7-------||


  2.
        |-3-|                 |-3-|
  E E E S S S E E E E   E E E S S S E E Q
|-----------------0-3-|-5---------------x----*|
|-3-------------1-0---|-5---------------x----*|
|-2-----2-2-2-------0-|-2-----2-2-2-----x----*|
|-------2-2-2---------|-2-----2-2-2-----x----*|
|-0-0-x-0-0-0-0---0---|-0-0-x-0-0-0-0-0-x----*|
|---------------------|----------------------*|


Duration Legend
---------------
W - whole; H - half; Q - quarter; E - 8th; S - 16th; T - 32nd; X - 64th; a - acciaccatura
+ - note tied to previous; . - note dotted; .. - note double dotted
Uncapitalized letters represent notes that are staccato (1/2 duration)
Irregular groupings are notated above the duration line
Duration letters will always appear directly above the note/fret number it represents the
duration for.  Duration letters with no fret number below them represent rests.  Multi-
bar rests are notated in the form Wxn, where n is the number of bars to rest for.  Low
melody durations appear below the staff

Tablature Legend
----------------
 h   - hammer-on
 p   - pull-off
 b   - bend
 pb  - pre-bend
 r   - bend release (if no number after the r, then release immediately)
 /\  - slide into or out of (from/to "nowhere")
 s   - legato slide
 S   - shift slide
  - natural harmonic
[n]  - artificial harmonic
n(n) - tapped harmonic
 ~   - vibrato
 tr  - trill
 T   - tap
 TP  - trem. picking
 PM  - palm muting
\n/  - tremolo bar dip; n = amount to dip
 \n  - tremolo bar down
 n/  - tremolo bar up
/n\  - tremolo bar inverted dip
 =   - hold bend; also acts as connecting device for hammers/pulls
 <>  - volume swell (louder/softer)
 x   - on rhythm slash represents muted slash
 o   - on rhythm slash represents single note slash

Misc Legend
-----------
 |  - bar
||  - double bar
||o - repeat start
o|| - repeat end
*|  - double bar (ending)
 :  - bar (freetime)
 $  - Segno
 &  - Coda
Tempo markers -  = BPM(8/16=s8/s16), where s8 = swing 8ths, s16 = swing 16ths


***************************************************************************************
* Generated using Power Tab Editor by Brad Larsen - http://powertab.guitarnetwork.org *
***************************************************************************************
Login or Register to remove this ad.

2 comments on Cyan

Heh, I always wondered why

5

Heh, I always wondered why noone bothered to make a fingerstyle tab for this so far.

Love it! GP5 version

5

Love it man, keep it up!

FF6 - Cyan Guitar Pro 5

Here's the Guitar Pro 5 version for those who want it.