Ads

Coin Song (Final Fantasy VI) Guitar Tab

Submitted: Oct 09, 2010 by TheDoomOfAllFires

4.875
Average: 4.9 (8 votes)
Download | Listen
Game: Final Fantasy VI
Composer(s): Nobuo Uematsu
Style: Arrangement, Fingerstyle
Series: Final Fantasy

AutoScroll: Slow | Medium | Fast
Title: Coin Song
Artist: Nobuo Uematsu
Album: FF VI
Music: Nobuo Uematsu
Copyright: Nobuo Uematsu / Square-Enix
Tabber: TheDoomOfAllFires
Tempo = 68
Steel Guitar




E |--2--5~-4--0----|--2----|-----2--0-------|----------------------------|
B |--3-----5-------|--2----|--3-------------|--0-----------0--2--3s-7----|
G |--2-----4-------|--3----|--0-----0--3----|----------------------------|
D |--0-------------|-------|----------------|--4-------------------------|
A |--------4-------|-------|--------3-------|--2-------------------------|
E |----------------|--2----|--3-------------|----------------------------|


--7-----5--7s-9~----5~------|--2-----0--2--5~----2-------|
--0-----0-------------------|--3-----3--3--0-------------|
----------------------------|-----2----------------------|
-----0----------------------|--0L-0--------2-------------|
--------------0-------------|----------------------------|
--3-------------------------|----------------------------|


--0--------0--2-------------|----------------------------|
--------3-----------3-------|--------------0--2--3s-7----|
--------0-------------------|--4-----4-------------------|
-----2--------4-------------|-----4----------------------|
--3-------------------------|--2--------2----------------|
----------------------------|----------------------------|


--7-----5--7s-9~----5~------|--2-----0--2--5~----2-------|
--0-----0-------------------|--3-----3--3--0-------------|
----------------------------|-----2----------------------|
-----0----------------------|--0L-0--------2-------------|
--------------0-------------|----------------------------|
--3-------------------------|----------------------------|


--0--------0--2-----4--6----|--7-------------------------|
--------3-------------------|--------7-------------------|
--------0-------------------|-----------9--8~------------|
-----2--------4-----0-------|----------------------------|
--3--------------------4----|----------------------------|
----------------------------|--7-------------------------|


----------------------------|----------------|----------------------------|
-----------------------5----|--3L-3----------|--0h-1-----------------1----|
--2s-4--------------4-------|-----4----------|--------0-----------0-------|
--------5--2--4s-5~---------|-----4----------|-----------2-----2----------|
----------------------------|--2-------------|--3-----------3-------------|
--0-------------------------|----------------|----------------------------|


----------------------------|----------------------------|--2-------------|
--0-------------------------|-----------------------5----|-----3----------|
--0--------------2s-4--0----|--2s-4--------------4-------|-----4----------|
----------------------------|--------5--2--4s-5~---------|-----4----------|
----------------------------|----------------------------|--2-------------|
--0L----------0-------------|--0-------------------------|----------------|


----------------------------|--7s-8----------------------|
--0h-1----------------------|--5-----8--7s-5~------------|
--------0-------------------|--5-------------------------|
-----------4--2-------------|----------------------------|
--3-------------------------|----------------------------|
----------------------------|----------------------------|


----------------------------|--5s-6----------------------|
----------------------------|--3-----6--5--3--------3~---|
--2h-3----------------------|--3--------------3s-5-------|
--------3--2--0-------------|----------------------------|
--1-----------1-------------|--------------1-------------|
----------------------------|----------------------------|


--0--------0----------------|-----------0--4~------------||
--------0-----0-------------|--------0-------------------||
-----2-----------2-----2----|-----1----------------------||
--------------------2-------|----------------------------||
----------------------------|----------------------------||
--0-------------------------|--0-------------------------||



Legend
L - tied note
x - dead note
h - hammer on/pull off
b - bend
s - slide
~ - vibrato
g - ghost note
> - accentuated note
t - trill
M - palm mute
. - staccato
P - popping (bass)
S - slapping (bass)
+ - tapping
W - wide vibrato
< - fade in
w - whammy bar
= - tremolo picking
v - brush up
^ - brush down
V - pick stroke up
n - pick stroke down
Login or Register to remove this ad.

2 comments on Coin Song

love it. thanks.

5

love it. thanks.

Nice! Though the xx2x05

5

Nice! Though the xx2x05 chord in measures 6 and 10 ought to be xx4x25. Try it out!