Blackjack (Final Fantasy VI) Guitar Tab

Submitted: Nov 14, 2011 by BacardiBreezer

4.2
Average: 4.2 (5 votes)
Download | Listen
Game: Final Fantasy VI
Composer(s): Nobuo Uematsu
Style: Transcription
Series: Final Fantasy

AutoScroll: Slow | Medium | Fast
Blackjack
Final Fantasy 6
Composed: Nobuo Uematsu
Tabbed by Bacardibreezer
11/12/11

Tabbed for solo guitar

e|-----------------------------------------------13-13-13-13---|
B|--------------------------------13-13-13-13------------------|
G|-----------------12-12-12-12---------------------------------|
D|--12-12-12-12------------------------------------------------|
A|-------------------------------------------------------------|
E|-------------------------------------------------------------|

e|--10--12--------|--------------13--11----10------|---------------|----------------------|
B|----------------|------10--11----------------13--|--14---15------|------10-9------------|
G|----------12~---|--12----------------------------|-----------11--|-------------12---9~--|
D|----------------|--------------------------------|---------------|--12------------------|
A|----------------|--------------------------------|---------------|----------------------|
E|----------------|--------------------------------|---------------|----------------------|

e|-------------------|--------------10~--|--10-------10-13~--|--10--12--13--15~---|
B|--------------11~--|--12----10-12------|-----11-13---------|--------------------|
G|--12----10-12------|-----12------------|-------------------|--------------------|
D|-----13------------|-------------------|-------------------|--------------------|
A|-------------------|-------------------|-------------------|--------------------|
E|-------------------|-------------------|-------------------|--------------------|

e|--10--12--------|--------------13--11----10------|---------------|----------------------|
B|----------------|------10--11----------------13--|--14---15------|------10-9------------|
G|----------12~---|--12----------------------------|-----------11--|-------------12---9~--|
D|----------------|--------------------------------|---------------|--12------------------|
A|----------------|--------------------------------|---------------|----------------------|
E|----------------|--------------------------------|---------------|----------------------|

e|-------------------|--------------10~--|--------------14~--|------14--16--17----14~---|
B|--------------11~--|--12----10-12------|--15-12-14-15------|--17----------------------|
G|--12----10-12------|-----12------------|-------------------|--------------------------|
D|-----13------------|-------------------|-------------------|--------------------------|
A|-------------------|-------------------|-------------------|--------------------------|
E|-------------------|-------------------|-------------------|--------------------------|

e|--17------|-----10-------10---------------|--17------|-----10-------10----------12~---|
B|-----18~--|--12----13-12----13-12-13-10~--|-----18~--|--12----13-12----13-12-13-------|
G|----------|-------------------------------|----------|--------------------------------|
D|----------|-------------------------------|----------|--------------------------------|
A|----------|-------------------------------|----------|--------------------------------|
E|----------|-------------------------------|----------|--------------------------------|

e|----------------------|--------------------------|
B|----------------------|--------------------------|
G|---------------7--8~--|--8--7---------------7~---|
D|------9--10-----------|--------10----9--10-------|
A|--10------------------|--------------------------|
E|----------------------|--------------------------|

e|------10--11~--|--11--10------10--12--13~--|-------------------------------------------------|
B|--13-----------|----------13---------------|--12----10-12------------------------------------|
G|---------------|---------------------------|-----12-------12----11-12---------12-------------|
D|---------------|---------------------------|-----------------12-------12-9-10----9-------9---|
A|---------------|---------------------------|---------------------------------------10-12-----|
E|---------------|---------------------------|-------------------------------------------------|

Login or Register to remove this ad.

4 comments on Blackjack

akwepfm'pasm';zmxv

1

akwepfm'pasm';zmxv

You don't say

You don't say

I think the second to last

4

I think the second to last line should be an octave up:

e|--------------10-11~--|--11--10-------------10~--|
B|--10--12--13----------|----------13--12--13------|
G|----------------------|--------------------------|
D|----------------------|--------------------------|
A|----------------------|--------------------------|
E|----------------------|--------------------------|

Yeah, I suppose, it just

Yeah, I suppose, it just sounded lower to me