Ads

Battle Theme (Final Fantasy VI) Guitar Tab

Submitted: Jul 03, 2013 by Colin_spade (Last updated: Jul 05, 2013)

5
Average: 5 (2 votes)
Download | Listen
Game: Final Fantasy VI
Composer(s): Nobuo Uematsu
Style: Arrangement, Fingerstyle
Series: Final Fantasy

AutoScroll: Slow | Medium | Fast
Battle Theme                                   


                                                                   Nobuo Uematsu
Track 1



     E  E  E  E     E  E  E  E  E  E  E  E     E  E  E  E  E  E  E  E   
E||-----------5--|--L-----------------------|--------------------------|
B||-----4--7-----|--------------------------|--------------------------|
G||--5-----------|--------------------------|--------------------------|
D||--------------|--------------------------|--------------------------|
A||--0-----------|--0--0--0--0--0--0--------|--0--0--0--0--0--0--------|
E||--------------|--------------------3--3--|--------------------3--3--|


    E  E  E  E  E  E  E  E     Q    E  E  E  E  E  E   
|------------0--3--1-----1--|--0----------------------|
|------0--1-----------3-----|----------------3--1-----|
|*--2-----------------------|-------2--------------3--|
|*--------2--------3--------|-------2--------3--0-----|
|---0--------0--1--------0--|--0-------0--1--------1--|
|---------------------------|-------------------------|


  Q    E  E  E  E  E  E     Q    E  E  E  E  E  E     E  E  E  E  E  E  E  E   
-------------------------|-------------------------|-----------0--3--1-----1--|
-------------------------|-------------------------|-----0--1-----------3-----|
--2-------------------0--|-------------------------|--2-----------------------|
-------2--------2--3-----|--2----3--------3--0-----|--------3--------3-----0--|
--0-------0--1--------0--|--0-------0--1--------1--|--0--------0--1-----------|
-------------------------|-------------------------|--------------------------|


  Q    E  E  E  E  E  E     Q    E  E  E  E  E  E     Q    E  E  E  E  E  E   
--0----------------------|-------------------------|-------------------------|
-------------3-----1-----|-------------------------|-------------------------|
-------2--------------3--|--2----------L--------0--|--2----------------------|
-------2--------3--0-----|-------2--------2--3--0--|-------3--------3--0-----|
--0-------0--1--------1--|--0-------0--1-----------|--0-------0--1--------1--|
-------------------------|-------------------------|-------------------------|


  E  E  E  E  E  E  E  E     Q    E  E  E  E  E  E     E  E  E  E  E  E  E  E   
--------------------------|-------------------------|--------------------------|
--------------1--1--------|-------------------------|--------------1--1-----3--|
--2--2-----3-----------3--|--2----3--2--L--------3--|--2--2-----3--------------|
--2--2--------3--L--------|--2-------0--L--2--3-----|--2--2--------3--L--------|
--0-----------1--L--------|--0----------------1-----|--0-----------1--L--------|
--------------------------|----------3--L-----------|--------------------------|


  E  S  S  E  E  E  E  E  E     E  E  E  E  E  E  E  E   
--------------------------2--|--------------------------|
--1--------------------2-----|--------------1--1--------|
-----3p-2p-0--------3--1-----|--2--2-----3-----------3--|
--2-----------3--L-----1-----|--2--2--------3--L--------|
--0-----------5--------------|--0-----------1--L--------|
--------------3--------------|--------------------------|


  Q    E  Q    E  E  E     E  E  E  E  E  E  E  E   
------------------------|--------------------------|
------------------------|--------------1--1-----3--|
--2----3--2----------3--|--2--2-----3--------------|
--2-------0----2--3-----|--2--2--------3--L--------|
--0---------------1-----|--0-----------1--L--------|
----------3-------------|--------------------------|


  E  S  S  E  E  E  E  E  E       Q    Q    E  E  Q       Q    Q    E  E  Q     
--------------------------2---||-----------------------|-----------------------|
--1--------------------2------||-----------------------|-----------------------|
-----3p-2p-0--------3--1-----*||--3----2----------2----|--1----2----------2----|
--2-----------3--L-----1-----*||--3----2---------------|--0----2---------------|
--0-----------5---------------||--5----3----0--0-------|--2----3----0--0-------|
--------------3---------------||-----------------------|-----------------------|


  E  E  E  E  E  E  E  E     E  E  S  S E  E  E  E  E     Q    Q    E  E  Q     
--0-----0-----0-----0-----|--0-----0-------0-----------|-----------------------|
--------------------------|----------------------4-----|-----------------------|
--------------------------|-------------------------0--|--3----2----------2----|
--------------------------|----------------------1-----|--3----2---------------|
--1--0--3--1--0-----------|-----0--1p-0----0--1--------|--5----3----0--0-------|
-----------------0-----3--|--L----------3--------------|-----------------------|


  Q    Q    E  E  Q       E  E  E  E  E  Q    E     E  E  E  E  E  Q    E   
-----------------------|-------------------------|-------------------------|
-----------------------|--------1-------------1--|--L--------1-------------|
--1----2----------2----|--3--2-----3--2----------|-----3--2-----3----------|
--0----2---------------|-----------------2-------|-----------------3-------|
--2----3----0--0-------|--0--------------0----1--|--L--------------1----1--|
-----------------------|-------------------------|-------------------------|


  E  E  E  E  E  E  E  E     Q    E  E  Q    E  E     E  Q    E  Q    Q     
--------0-----1--0--3--1--|--5-------5-------5-----|-----5-------8----7----|
--3--1-----3--------------|--5-------5-------5-----|-----5-------8----6----|
--------------------------|--3-------3-------3-----|-----3-----------------|
--------------------------|------------------------|-----------------------|
--3-----------------1-----|--0-------0-------3--4--|----------0------------|
--------3-----1-----------|-------0----------------|-----0-------3----4----|


                  ^      
  Q    E  E  Q    Q      
--5-------5-------4----||
--5-------5-------3----||
--4-------4-------4----||
-----------------------||
--0-------0------------||
------------------0----||




Duration Legend
---------------
W - whole
H - half
Q - quarter
E - 8th
S - 16th
T - 32nd
X - 64th
. - note dotted
|-n-|  - n-tuplets


Tablature Legend
----------------
L - tied note
x - dead note
g - grace note
(n) - ghost note
> - accentuded note
NH - natural harmonic
AH - artificial harmonic
TH - tapped harmonic
SH - semi harmonic
PH - pitch harmonic
h - hammer on
p - pull off
b - bend
br - bendRelease
pb - preBend
pbr - preBendRelease
brb - bendReleaseBend
\n/ - tremolo bar dip
\n - tremolo bar dive
-/n - tremolo bar Release up
/n\ - tremolo bar inverted dip
/n - tremolo bar return
-\n - tremolo bar Release down
S - shift slide
s - legato slide
/ -  slide into from below or out of upwards
\ -  slide into from above or out of downwards
~ - vibrato
W - wide vibrato
tr - trill
TP - tremolo picking
T - tapping
S - slap
P - pop
< - fade in
^ - brush up
v - brush down
Login or Register to remove this ad.

7 comments on Battle Theme

Not too shabby, I'll change

4

Not too shabby, I'll change my rating to a 5 if some wrong notes are fixed, like:

  E  E  E  E  E  E  E  E     Q    E  E  E  E  E  E     E  E  E  E  E  E  E  E   
--------------------------|-------------------------|--------------------------|
--------------1--1-----0--|----------------------0--|--------------1--1-----3--|
--2--2-----3--------------|--2----3--2--L-----------|--2--2-----3--------------|
--2--2--------3--L--------|--2-------0--L--2--3-----|--2--2--------3--L--------|
--0-----------1--L--------|--0----------------1-----|--0-----------1--L--------|
--------------------------|----------3--L-----------|--------------------------|

should be

  E  E  E  E  E  E  E  E     Q    E  E  E  E  E  E     E  E  E  E  E  E  E  E   
--------------------------|-------------------------|--------------------------|
--------------1--1--------|-------------------------|--------------1--1-----3--|
--2--2-----3-----------3--|--2----3--2--L--------3--|--2--2-----3--------------|
--2--2--------3--L--------|--2-------0--L--2--3-----|--2--2--------3--L--------|
--0-----------1--L--------|--0----------------1-----|--0-----------1--L--------|
--------------------------|----------3--L-----------|--------------------------|

ill have a look through this,

ill have a look through this, thanks. i thought it was a-ok xD

umm, amateur question xD how

umm, amateur question xD how do i submit the edited version? through the regular submit tab?

Yeah, just submit it the same

Yeah, just submit it the same way but write at the top of the text that it is an update.

thank you :]

thank you :]

its updated. found a few

its updated. found a few mistakes actually. this was back before i knew about accidentals xD should be good now :)

I know this was a long time

5

I know this was a long time ago, but I changed my rating to 5 stars!

This tab is actually pretty bad ass =)