Battle Theme (Final Fantasy VI) Bass Tab

Submitted: Jan 15, 2012 by mushroomkingDX

0
Download | Listen
Game: Final Fantasy VI
Composer(s): Nobuo Uematsu
Style: Transcription
Series: Final Fantasy

AutoScroll: Slow | Medium | Fast
Battle Theme
Final Fantasy VI
Originally written by: Nobuo Uematsu
Tabbed by: mushroomkingDX
1/10

Used the piano sheet music to make this tab. Tell me what you think/anything you'd like tabbed. 
If I can find music for it, I'll do it. If anything is confusing, let me know, I'll fix it.

H = Half Note
Q = Quarter Note
E = Eighth Note
S = Sixteenth Note
~ = Tie
. = Dotted Note

EADG tuning
Approx. 160 BPM
                                               This is a repeat sign, if you're not good at music.
                                               ||
  H          E E E E E E E E   E E E E E E E E \/  Q   E E E Q   E   Q   E E E E E E

G----------|-----------------|-----------------||>-----------------|-----------------|
D----------|-----------------|-----------------|| -----2-----3---0-|-----2-----3-0---|
A-0--------|-0-0-0-0-0-0-----|-0-0-0-0-0-0-----|| -0-----0-1-------|-0-----0-1-----1-|
E----------|-------------3-3-|-------------3-3-||>-----------------|-----------------|

  Q   E E E Q   E   Q   E E E E E E   Q   E E E Q   E   Q   E E E E E E

G-----------------|-----------------|-----------------|-----------------|
D-----2-----3---0-|-----2-----3-0---|-----2-----3---0-|-----2-----3-0---|
A-0-----0-1-------|-0-----0-1-----1-|-0-----0-1-------|-0-----0-1-----1-|
E-----------------|-----------------|-----------------|-----------------|

  Q   E E E Q   E   Q   E E E E E E   H       H         Q.    Q.    Q

G-----------------|-----------------|-----------------|-----------------|
D-----2-----3---0-|-----2-----3-0---|-2-------3-------|-2-----0-----3---|
A-0-----0-1-------|-0-----0-1-----1-|-0-------1-------|-0-----------1---|
G-----------------|-----------------|-----------------|-------3---------|

  H       H         Q.    Q.    Q     Q   E E E Q   E   Q   E E E E E E

G-----------------|-----------------|-----------------|-----------------|
D-2-------3-------|-2-----0-----3---|-----2-----3---0-|-----2-----3-0---|
A-0-------1-------|-0-----------1---|-0-----0-1-------|-0-----0-1-----1-|
E-----------------|-------3---------|-----------------|-----------------|

  Q   E E E Q   E   Q   E E E E E E   Q   E E E Q   E   Q   E E E E E E

G-----------------|-----------------|-----------------|-----------------|
D-----2-----3---0-|-----2-----3-0---|-----2-----3---0-|-----2-----3-0---|
A-0-----0-1-------|-0-----0-1-----1-|-0-----0-1-------|-0-----0-1-----1-|
E-----------------|-----------------|-----------------|-----------------|

  Q   E E E Q   E   Q   E E E E E E   E E Q   E E Q     E E Q   E E Q   

G-----------------|-----------------|-----2-------2---|-----2-------2---|
D-----2-----3---0-|-----2-----3-0---|-----------------|-----------------|
A-0-----0-1-------|-0-----0-1-----1-|-0-0-----0-0-----|-0-0-----0-0-----|
E-----------------|-----------------|-----------------|-----------------|

  E E E E E Q   E~~~E E SSE E E E E   E E Q   E E Q     E E Q   E E Q   

G-----------------|---------------0-|-----2-------2---|-----2-------2---|
D-----------------|-------------1---|-----------------|-----------------|
A-1-0-3-1-0-------|---0-10--0-1-----|-0-0-----0-0-----|-0-0-----0-0-----| If the sixteenth notes are confusing,
E-----------0---3-|-3-----3---------|-----------------|-----------------| its the first fret, then open string. 

  H~~~~~~~E Q   E~~~H~~~~~~~E Q   E   Q   Q   Q   Q     Q   E E~E E E E~

G-----------------|-----------------|-----1-----------|-------2-2-------|
D-----------------|-----------------|---------3-------|-----2-----------|
A-0-------0-0---1-|-1-------1-1---1-|-3-----------1---|-0---------1-3-4-|
E-----------------|-----------------|-----------------|-----------------|

~~E Q   E Q   Q     Q.    Q.    Q~~~~~Q   E E~Q   Q

G-----------------|-----------------|-----------------<||
D---2-------------|-----------------|-------2-2------- ||
A-4-----0---------|-0-----0---------|-----1-------1--- ||
E---------3---4---|-------------0---|-0---------------<||
                                                       /\
                                                       ||
                                                       Go back to the first repeat sign here.
Login or Register to remove this ad.

4 comments on Battle Theme

Repeat signs use dots, not

Repeat signs use dots, not arrows--if you're not good at music. :-)

Point being, it's fine to use

Point being, it's fine to use arrows. But there's no need to preemptively defend that decision by tacking on an insult.

It looked confusing with the

It looked confusing with the repeats as dots. So I used arrows.

Also, this is written with

Also, this is written with those who are not good at music in mind.