Awakening (Final Fantasy VI) Guitar Tab

Submitted: Sep 19, 2012 by JordanVS

4.75
Average: 4.8 (4 votes)
Download | Listen
Game: Final Fantasy VI
Composer(s): Nobuo Uematsu
Style: Arrangement, Fingerstyle, Tapping
Series: Final Fantasy

AutoScroll: Slow | Medium | Fast
Awakening                               
Final Fantasy VI
Nobuo Uematsu
JordanVS



       H        E  E  E  E     E  E  E  E  E  Q    E   
E||--1g2--------L--0--------|-------------------------|
B||-------------------0-----|--3--1-----------0-------|
G||----------------------0--|--------0-------------2--|
D||-------------------------|-----------2--1----------|
A||----2--------------------|-------------------------|
E||----0--------------------|--1-----------1----------|


  S S S S S S H        E       E  E  E  E  Q.     E   
--------------2--------0--|--4g5--3--------3------1--|
----------0-3-------------|----------0--1------------|
--0-----0-----------------|----------------2---------|
----2-4-------------------|----3-----------1---------|
--2-----------------------|--------------------------|
--0-----------------------|--------------------------|


  S  S  S  S  S  S  S  S  S  S  S  S  Q     
--2h-3p-2h-3p-2h-3p-2h-3p-2h-3p-2h-3p-2----|
--0----------------------------------------|
-------------------------------------------|
--0----------------------------------------|
-------------------------------------------|
-------------------------------------------|


  S  S  S  S  S  S  S  S  S  S  S  S  Q     
--0h-1p-0h-1p-0h-1p-0h-1p-0h-1p-0h-1p-0----|
-------------------------------------------|
--2----------------------------------------|
--2----------------------------------------|
-------------------------------------------|
-------------------------------------------|


  S  S  S  S  S  S  S  S  S  S  S  S  Q     
--2h-3p-2h-3p-2h-3p-2h-3p-2h-3p-2h-3p-2----|
--0----------------------------------------|
-------------------------------------------|
--0-----------------------0----------------|
-------------------------------------------|
-------------------------------------------|


  S  S  S  S  S  S  S  S  S  S  Q    S S  
--0h-1p-0h-1p-0h-1p-0h-1p-0h-1p-0----5-7-|
-----------------------------------------|
--2--------------------------------------|
--2-----------------------2--------------|
-----------------------------------------|
-----------------------------------------|


  S  S E   E  E   Q    E  S S    Q    E  E  Q    E  S S  
--8-12-8------------------7-5-|--7----0----------L--5-7-|
-----------------10-----------|-------------------------|
--------------9---------------|-------------0-----------|
----------10------------------|----------2--------------|
--0--------------------0------|-------2-----------------|
------------------------------|--0---------------0------|


  S  S E   E  E   Q    E  S S    Q     E  E  Q    E  S  S  
--8-12-8------------------7-5-|--7----12----------L--8-10-|
-----------------10-----------|--------0-----0------------|
--------------9---------------|-----------0---------------|
----------10------------------|---------------------------|
--0--------------------0------|---------------------------|
------------------------------|--0----------------0-------|


       T                                                             
   S   S   E   E   E  Q    E   S S     E   E   Q     Q     E   S  S  
--12h-15p-12------------------10-8-|--10-------------------L--------|
-----------------------------------|--------------------------13-12-|
----------------------9------------|----------12--------------------|
------------------10---------------|------12--------12--------------|
--------------10-------------------|--10------------------10--------|
---8-----------------------8-------|--------------------------------|


   Q     E   E   Q    E  S S    Q    E  E  E  Q.       
-------------------------8-7-|--5-------------5------||
--10------------------L------|-------------5---------||
------------10---------------|----------5------------||
--------10------10-----------|-------7---------------||
---8------------------8------|--0--------------------||
-----------------------------|-----------------------||




Duration Legend
---------------
W - whole
H - half
Q - quarter
E - 8th
S - 16th
. - note dotted


Tablature Legend
----------------
L - tied note
g - grace note
T - tapping
h - hammer on
p - pull off
Login or Register to remove this ad.

2 comments on Awakening

I like to say that song is

5

I like to say that song is overplayed in the game - but it would be a lie cause I always loved every second of it. <3

Lovely

5

Lovely