Unknown Lands (Final Fantasy V) Bass Tab

Submitted: Aug 02, 2009 by auriplane (Last updated: Aug 26, 2014)

0
Download | Listen
Game: Final Fantasy V
Composer(s): Nobuo Uematsu
Style: Transcription
Series: Final Fantasy

This song is also called World Two

AutoScroll: Slow | Medium | Fast
                Final Fantasy V - Unknown Lands BASS TAB
                          Song by Nobuo Uematsu

                 Tabbed by auriplane ([email protected])


Four-string bass, standard tuning.  

    Rest for one measure at the beginning.

   W       W       W       H   Q Q W       W       W       W
G |----------------------------1-0---------------------------------|
D |--------------------------------4---------------1---------------|    
A |3-------4-------1-----------------------1-----------------------|
E |------------------------4-------------------------------4-------|
                           
   W       W       W       W       W       W       W       H   H      
G |----------------------------------------------------------------|
D |--------4---------------4-----------------------4---------------|
A |1---------------1---------------4-------2---------------0---2---|
E |----------------------------------------------------------------|

   W
G |--------|
D |--------|
A |4-------|
E |--------|
Login or Register to remove this ad.