Ads

Tenderness in the Air (Final Fantasy V) Guitar Tab

Submitted: Feb 23, 2020 by JordanVS (Last updated: Feb 25, 2020)

5
Average: 5 (6 votes)
Download | Listen
Game: Final Fantasy V
Composer(s): Nobuo Uematsu
Style: Arrangement, Fingerstyle
Series: Final Fantasy

This song is also called Town's Theme

AutoScroll: Slow | Medium | Fast
Tenderness in the Air
Final Fantasy V
Piano Collections
Nobuo Uematsu & Shirou Satou & Toshiyuki Mori
JordanVS

The Tenderness in the Air track from the Piano Collections album.

Tempo: 80 ~ 4/4

     Q    Q    Q    Q       Q    Q    Q    Q       E  E  E  E  E  E  E  E     Q    Q    Q    Q     
E||----------------------|----------------------|-----8--7--8--5--8-----8--|----------------------|
B||----------------------|----------------------|--------------------8-----|--8----6----5---------|
G||--5----5----5----5----|--5----5----5----5----|--5-----5-----5-----5-----|--5----5----5----5----|
D||----------------------|----------------------|--------------------------|----------------------|
A||----------------------|----------------------|--------------------------|----------------------|
E||----------------------|----------------------|--------------------------|----------------------|


  E  E  E  E  E  E  E  E     Q    Q    E  E  E  E     E  E  E  E  E  E  E  E   
--------------3-----------|------------------------|-----8--7--8--5--8-----8--|
-----6--5--6-----3--5--6--|--5---------------------|--------------------8-----|
--5-----5-----5-----5-----|--5----5----5--------5--|--5-----5-----5-----5-----|
--------------------------|------------------6-----|--------------------------|
--------------------------|------------5--8--------|--------------------------|
--------------------------|------------------------|--------------------------|


  Q    Q    Q    E  S  S    Q    E  E  Q    Q       Q    Q    Q    E  S  S    Q    E  E  Q    Q     
-------------------------|----------8--8---------|--L----------------------|----------8--8---------|
--8----6----5-------3h-5-|--6--------------------|--------------------3h-5-|--6--------------------|
--5----5----5----5-------|--5----5-----5----5----|--5----5----5----5-------|--5----5-----5----5----|
-------------------------|-----------------------|-------------------------|-----------------------|
-------------------------|-----------------------|-------------------------|-----------------------|
-------------------------|-----------------------|-------------------------|-----------------------|


                          ^                ^              ^                ^                    
  Q    Q    Q    Q        Q     Q     Q    Q       Q      H        Q       Q    Q    Q    Q     
--L-------------------|--12----10-----8----5----|-------<>8-------------|--0-------------------|
----------------------|--13----------------6----|--L--------------------|--1----3----1---------|
--5----5----5---------|--14----------------5----|--L------5-------------|--2--------------1----|
----------------------|--14----12----10----7----|-----------------------|--2----0---------0----|
----------------------|-------------------------|-----------------------|------------3----3----|
----------------------|-------------------------|-----------------------|-----------------4----|


         ^                                                                            
  Q.     E  H            E   E   E   E   E   E   E   E      E   E  E  E  E  E  E  E   
---------8--L--------|------15--13--12--10--------------|--12------------7-----------|
---------------------|----------------------13--12--13--|-------------------0--------|
--L------5--L--------|--12------------------------------|------10--9--7--5-----------|
--L------------------|--14--------------10--------------|----------------------7--6--|
--L------------------|----------------------------------|--11------------------------|
---------------------|----------------------------------|----------------------------|


   E   E   E  E  E   E  E   E     E  E  E  E  E  E  E  E     Q.     E  E  E  E  E   
------12--10--8--7-------------|--8-----------------------|---------------------8--|
--------------------10--9--10--|--------0-----6-----8--6--|--5------6--8-----8-----|
---9---------------------------|-----5--------------------|---------------9--------|
-------------------------------|-----------7--6-----------|------------7-----------|
--10-------------7-------------|--5--------------8--7--5--|--3---------------------|
-------------------------------|--------------------------|------------------------|


                               NH                                            
   H         Q    E   E        H         Q    E   E      H         H         
--12---------------------|----13---------------------|--12------------------|
--10--------12----9--10--|----10--------10----9--10--|--10--------12--------|
---9---------------------|---------------------------|--10---------8--------|
-------------------------|--<>12---------------------|-------------9--------|
---9---------------------|---------------------------|--10---------8--------|
-------------------------|---------------------------|----------------------|


   E   E   E   E   E   E   E   E      E   E  E  E  E  E  E  E      E   E   E  E  E   E  E   E   
------15--13--12--10--------------|--12------------7-----------|------12--10--8--7-------------|
----------------------13--12--13--|-------------------0--------|--------------------10--9--10--|
--12------------------------------|------10--9--7--5-----------|---9---------------------------|
--14--------------10--------------|----------------------7--6--|-------------------------------|
----------------------------------|--11------------------------|--10-------------7-------------|
----------------------------------|----------------------------|-------------------------------|


  E  E  E  E  E  E  E  E     Q.     E  E  E  E  E      H         Q    E   E      W                 
--8-----------------------|---------------------8--|--12---------------------|--13----------------|
--------0-----6-----8--6--|--5------6--8--5--8-----|--10--------12----9--10--|--10----------------|
-----5--------------------|------------5-----------|--11---------------------|--10----------------|
-----------7--6-----------|--2---------5-----------|-------------------------|---0----------------|
--5--------------8--7--5--|--3---------0-----------|---9---------------------|--------------------|
--------------------------|------------------------|-------------------------|--------------------|


  ^                                                                                         
  Q    Q    Q    Q       Q    Q    Q    Q       Q    Q    Q    Q       Q    Q    Q    Q     
--0-------------------|----------------------|----------------------|----------------------|
-------3----1---------|--1----1--------------|----------------------|----------------------|
--2--------------1----|--L---------5----5----|--5----5----5----5----|--5----5----5----5----|
--2----0---------0----|--L-------------------|--6----5----3----2----|--L-------------------|
------------3----3----|--L-------------------|--5-------------------|----------------------|
-----------------4----|----------------------|-------7----4----3----|--L-------------------|


                                               rall.---------------------------------T=65
  Q    Q    Q    Q       Q    Q    Q    Q       Q    Q    Q    Q       Q    Q    Q    Q     
----------------------|----------------------|----------------------|----------------------|
--5----3--------------|----------------------|--6----5----3----5----|--6----5----3----5----|
--5----5----5----5----|--5----5----5----5----|--5----5----5----5----|--4----4--------------|
--5----3----2----6----|--L-------------------|--6-------------------|--6---------6----3----|
-----------------5----|--L-------------------|----------------------|----------------------|
----------------------|----------------------|----------------------|----------------------|

 T=105
  E  E  E  E  E  E  E  E     E  E  E  E  E  E  E  S  S    E  E  E  E  E  E  E  E   
--------------------------|----------------------------|--------------------------|
--------1-----0-----1-----|----------------------------|--------1-----0-----1-----|
--0-----------------------|--0-------------------------|--0-----------------------|
-----2-----2-----2-----2--|--------3-----2--------2h-3-|-----2-----2-----2-----2--|
--1-----------1-----------|-----3-----3-----3--L-------|--1-----------1-----------|
--------------------------|--4-----------3-----3-------|--------------------------|


  E  E  E  E  E  E  E  E     E  E  E  E  E  E  E  E     E  E  E  E  E  E  E  E   
--3-----------0-----L-----|--------------------------|--------------------------|
--------6-----------------|--------3-----2-----3-----|--------3-----2-----3-----|
--------------------------|--2-----------------------|--2-----------------------|
--------------------2-----|-----4-----4-----4-----4--|-----0-----0-----0-----0--|
-----3-----3-----3-----3--|--3-----------3-----------|--2-----------2-----------|
--4-----------3-----------|--------------------------|--------------------------|


  E  E  E  E  E  E  E  S  S    E  E  E  E  E  E  E  E     E  E  E  E  E  E  E  E   
----------------------------|--------------------------|--------5-----3-----5-----|
--0-------------------------|--------3-----2-----3-----|--3-----------------------|
--------2-----0-------------|--2-----------------------|--------------------------|
-----------------------4h-5-|--------------------------|--------------------------|
-----0-----0-----0--L-------|-----0-----0-----0-----0--|-----2-----2-----2-----2--|
--2-----------2-----2-------|--2-----------2-----------|--1-----------1-----------|


  E  E  E  E  E  E  E  E     E  E  E  E  E  E  E  E     E  E  E  E  E  E  E  E   
--3-----------------------|--3-----------------------|--3-----------------------|
--1-----------1-----------|--1-----------1-----------|--1-----------1-----------|
--------0-----0-----0-----|--------2-----2-----2-----|--------0-----0-----0-----|
--------------------------|--------------------------|-----2-----2-----2-----2--|
-----3-----3-----3-----3--|-----3-----3-----3-----3--|--------------------------|
--0-----------0-----------|--1-----------1-----------|--3-----------3-----------|


  E  E  E  E  E  E  E  E     E  E  E  E  E  E  E  E     E  E  E  E  E  E  E  E   
--3-----------------------|--3-----------------------|--3-----------------------|
--1-----------1-----------|--1-----------1-----1-----|--1-----------1-----1-----|
--------2-----2-----2-----|--------0-----0-----0-----|--------2-----2-----2-----|
-----3-----3-----3-----3--|--------------------------|--------------------------|
--0-----------0-----------|-----3-----3-----3-----3--|-----3-----3-----3-----3--|
--------------------------|--0-----------0-----------|--1-----------1-----------|


  E  E  E  E  E  E  E  E     E  E  E  E  E  E  E  E     E  E  E  E  H         
--3-----------------------|--3-----------------------|--------------8--------|
--1-----------1-----1-----|--------------------------|-----------6-----------|
--------0-----0-----0-----|--5-----------5-----5-----|--------5-----5--------|
-----2-----2-----2-----2--|-----3--5--3--5--3--5--3--|-----3-----------------|
--------------------------|--------------------------|--3--------------------|
--3-----------3-----------|--3-----------3-----------|-----------------------|


  E  E  E  E  E  E  E  E     H        H           E  E  E  E  E  E  E  E     H        Q    E  E   
--L--3--1--0--------------|--0-----------------|-----0--------------------|----------------------|
--------------3--1--0--1--|--0--------0--------|--------3--1--0-----------|--1-------------------|
--0--0--------------------|--1--------1--------|-----------------2--1--2--|--2-------------0-----|
--2-----3--2--0-----------|--2--------2--------|--2--2--0-----------------|--3--------3-------3--|
--3--------------3--2--3--|-----------2--------|--1--------3--2--0-----0--|--3--------3----------|
--------------------------|--------------------|--0-----------------4-----|-----------1----------|


  Q.     E  E  E  E  E     H        Q    E  E     H        Q    E  E     H        H         
------------------------|--0-------------------|--1-------------------|--0-----------------|
---------------------1--|-----------0----------|--1-------------------|-----------0--------|
------------0-----0-----|--2-------------1--2--|--3--------2----1--2--|--2-----------------|
--2------3-----2--------|--2-------------------|--0-------------------|--3--------1--------|
--3---------0-----------|----------------------|----------------------|-----------2--------|
------------------------|--2-------------------|----------------------|--3--------1--------|


  E  E  E  E  E  E  E  E     E  E  E  E  E  E  E  E     E  E  E  E  E  E  E  E   
-----3--1--0--------------|--0-----------------------|-----0--------------------|
--------------3--1--0--1--|--0-----------0-----------|--------3--1--0-----------|
--0-----------0-----------|-----------1--1-----------|--------3--------2--1--2--|
--2-----2-----------2-----|-----0--2-----------0--2--|--2-----0-----------2-----|
--3-----------------------|--2--------------2--------|--1-----------0-----4-----|
--------------------------|--------------4-----------|--0-----------------------|


  E  E  E  E  E  E  E  E     E  E  E  E  E  E  E  E     E  E  E  E  E  E  E  E   
--------------------------|--------------------------|--0-----------------------|
--1-----L-----------------|--------1--------------1--|--1-----------0-----------|
--2-----L--2--------0-----|-----0--------0-----0-----|--------2-----------1--2--|
--------3-----3--------3--|--2--------3-----2--------|-----2-----2-----2--L-----|
-----3--------3-----5-----|--3--------2--3-----------|--------------------------|
--1--------------4--------|--------------5--------3--|--2-----------------------|


  E  E  E  E  E  E  E  E     E  E  E  E  E      Q     Q    Q    Q       Q    Q    Q    Q     
--1-----L-----------------|--------------8--|--12----10----8----5----|--3----1----0---------|
--1-----L-----1-----------|--------1--6-----|--10----10----6----3----|--1--------------3----|
-----------2--------------|-----2-----------|---9-----7----5----2----|--0----1----1---------|
-----0--3-----------------|--3--------------|------------------------|-------3----2----3----|
--------------------0--3--|-----------------|------------------------|-----------------5----|
--1--------------1--------|-----------------|------------------------|----------------------|


  Q    Q    Q    Q       Q    Q    Q    Q       Q    Q    Q    Q       Q    Q    Q    Q     
----------------------|----------------------|----------------------|----------------------|
--1----1----1----1----|--1----1----1----1----|--5----3--------------|----------------------|
--0-------------------|--L-------------------|--5----5----5----5----|--5----5----5----5----|
--2-------------------|--L-------------------|--5----3----2----6----|----------------------|
--3-------------------|--L-------------------|-----------------5----|----------------------|
----------------------|----------------------|----------------------|----------------------|


  Q    Q    Q    Q       Q    Q    Q    Q       Q    Q    Q    Q       Q    Q    Q    Q     
----------------------|----------------------|----------------------|----------------------|
----------------------|----------------------|--5----3--------------|----------------------|
--5----5----5----5----|--5----5----5----5----|--5----5----5----5----|--5----5----5----5----|
--6----5----3----2----|----------------------|--5----3----2----6----|----------------------|
--5-------------------|----------------------|-----------------5----|----------------------|
-------7----4----3----|----------------------|----------------------|----------------------|


  Q    Q    Q    Q       Q      
----------------------|-------||
----------------------|-------||
--5----5----5----5----|--5----||
----------------------|-------||
----------------------|-------||
----------------------|-------||




Duration Legend
---------------
W - whole
H - half
Q - quarter
E - 8th
S - 16th
T - 32nd
X - 64th
. - note dotted
|-n-|  - n-tuplets


Tablature Legend
----------------
L - tied note
x - dead note
g - grace note
(n) - ghost note
> - accentuded note
NH - natural harmonic
AH - artificial harmonic
TH - tapped harmonic
SH - semi harmonic
PH - pitch harmonic
h - hammer on
p - pull off
b - bend
~ - vibrato
W - wide vibrato
tr - trill
TP - tremolo picking
T - tapping
S - slap
P - pop
< - fade in
^ - brush up
v - brush down
Login or Register to remove this ad.

1 comment on Tenderness in the Air

Wow - this is breathtaking.

5

Wow - this is breathtaking. Thank you!