Ads

Tenderness in the Air (Final Fantasy V) Guitar Tab

Submitted: Oct 03, 2007 by archard (Last updated: Apr 28, 2009)

4.666665
Average: 4.7 (3 votes)
Download | Listen
Game: Final Fantasy V
Composer(s): Nobuo Uematsu
Style: Transcription
Series: Final Fantasy

AutoScroll: Slow | Medium | Fast
Tenderness in the Air
Final Fantasy V
Composed by Nobuo Uematsu

8/27/06

e--0------------------
B--1-----3-----1------
G--------1-----0-----1
D--------------------3
A---------------------
E---------------------

e------------------------------1-0-1-3---0-1-0--------
B--1-0-1---1---1-----------------------3--------------
G--------2---0---0------------------------------------
D--------------------3---2----------------------------
A-----------------------------------------------------
E-----------------------------------------------------

e-------------------------------------------------------
B--1-0-1---1---1-----------------------1-1-----------1-1
G--------2---0---0--------------------------------------
D--------------------3---2-----0-2-3---------0-2-3------
A-------------------------------------------------------
E-------------------------------------------------------

e--0------------------
B--1-----3-----1------
G--------2-----0-----1
D--------------------3
A---------------------
E---------------------

e----3-1-0---------0-------------0-----------------
B----------3-1-0-1-------0---------3-1-0-------1---
G--0-------------------------------------2-1-2-----
D------------------------------2-------------------
A--------------------------------------------------
E--------------------------------------------------

e------------------------0------------1------------0------------
B----------------------1-------0-------------------------0-----1
G------0---------0---0------------1-2-------2--1-2--------------
D--3-----3-2---3---2--------------------------------------------
A---------------------------------------------------------------
E---------------------------------------------------------------
Login or Register to remove this ad.

2 comments on Tenderness in the Air

Simple and accurate... once

Simple and accurate... once again!

Good Night Final Fantasy

Good Night
Final Fantasy V
Composed by Nobuo Uematsu
Tabbed by Richard Schaefer ([email protected])
8/6/06

e----------1-----0------
B----1-2-4----1-----1--4
G--3--------------------
D-----------------------
A-----------------------
E-----------------------