Sealed Away (Final Fantasy V) Bass/Guitar Tab

Submitted: Dec 17, 2011 by hashel (Last updated: Dec 20, 2011)

5
Average: 5 (1 vote)
Download | Listen
Game: Final Fantasy V
Composer(s): Nobuo Uematsu
Style: 2 or more instruments, Alternate picking, Transcription
Series: Final Fantasy

This song is also called Wind Shrine Theme

AutoScroll: Slow | Medium | Fast
Title: Sealed Away
SubTitle: Wind Shrine Theme
Album: FFV OST
Music: Nobuo Uematsu
Copyright: Squaresoft
Tabber: Hashel05
Tempo = 120



Melody

E |-------------------|-------------------|-------------------||
B |-------------------|-------------------|-------------------||
G |-------------------|-------------------|-------------------||
D |-------------------|-------------------|-------------------||
A |-------------------|-------------------|-------------------||
E |-------------------|-------------------|-------------------||


-11-10---------------------|--------11-10---------------|
-------12------------------|----------------------------|
o--------------------------|----------------------------|
o--------------------------|----------------------------|
---------------------------|----------------------------|
---------------------------|----------------------------|


----------------------------|
--12-13-11------------------|
----------------------------|
----------------------------|
----------------------------|
----------------------------|


----------------------------------------------------------------|
--9-----------------11h9h-8-------------------------------------|
----------------------------------------------------------------|
----------------------------------------------------------------|
----------------------------------------------------------------|
----------------------------------------------------------------|


-------------------|--------11-10---------------|-------------------|
-------------------|----------------------------|--12---------------|
-------------------|----------------------------|-------------------|
-------------------|----------------------------|-------------------|
-------------------|----------------------------|-------------------|
-------------------|----------------------------|-------------------|


--11-10---------------------|
--------12-13---------------|
----------------------------|
----------------------------|
----------------------------|
----------------------------|


----------------------------------------------------------------|
--11----------------------9-----------------11h9h---------------|
----------------------------------------------------------------|
----------------------------------------------------------------|
----------------------------------------------------------------|
----------------------------------------------------------------|


-------------------|-------------------|
--8----------------|-------------------|
-------------------|-------------------|
-------------------|-------------------|
-------------------|-------------------|
-------------------|-------------------|


----------------------------------------|
-----------------------16---------------|
--12----13------------------------------|
--------------15------------------------|
----------------------------------------|
----------------------------------------|


-----------------------16---------------|--15-------13---------------|
--15----16----12-13-16------------------|----------------------------|
----------------------------------------|----------------------------|
----------------------------------------|----------------------------|
----------------------------------------|----------------------------|
----------------------------------------|----------------------------|


-------------------|----------------------------------------|
--14---------------|-----------------------16---------------|
-------------------|--12----13------------------------------|
-------------------|--------------15------------------------|
-------------------|----------------------------------------|
-------------------|----------------------------------------|


-----------------------16---------------|
--15----16----12-13-16------------------|
----------------------------------------|
----------------------------------------|
----------------------------------------|
----------------------------------------|


--15-------13---------------------------|-------------------|
--------------16-14---------------------|--14---------------|
--------------------14-15---------------|-------------------|
----------------------------------------|-------------------|
----------------------------------------|-------------------|
----------------------------------------|-------------------|


-------------------|-------------------|-------------------|------------------|||
-------------------|-------------------|-------------------|------------------|||
-------------------|-------------------|-------------------|-----------------o|||
-------------------|-------------------|-------------------|-----------------o|||
-------------------|-------------------|-------------------|------------------|||
-------------------|-------------------|-------------------|------------------|||



Rhythm

E |-------------------|-------------------|-------------------||
B |-------------------|-------------------|-------------------||
G |-------------------|-------------------|-------------------||
D |-------------------|-------------------|-------------------||
A |-------------------|-------------------|-------------------||
E |-------------------|-------------------|-------------------||


------------------|-------------------|-------------------|-------------------|
------------------|-------------------|-------------------|-------------------|
o-----------------|-------------------|-------------------|-------------------|
o-----------------|-------------------|-------------------|-------------------|
------------------|-------------------|-------------------|-------------------|
------------------|-------------------|-------------------|-------------------|


-------------------|-------------------|-------------------|-------------------|
-------------------|-------------------|-------------------|-------------------|
-------------------|-------------------|-------------------|-------------------|
-------------------|-------------------|-------------------|-------------------|
-------------------|-------------------|-------------------|-------------------|
-------------------|-------------------|-------------------|-------------------|


-------------------|-------------------|-------------------|-------------------|
-------------------|-------------------|-------------------|-------------------|
-------------------|-------------------|-------------------|-------------------|
-------------------|-------------------|-------------------|-------------------|
-------------------|-------------------|-------------------|-------------------|
-------------------|-------------------|-------------------|-------------------|


-------------------|-------------------|-------------------|-------------------|
-------------------|-------------------|-------------------|-------------------|
-------------------|-------------------|-------------------|-------------------|
-------------------|-------------------|-------------------|-------------------|
-------------------|-------------------|-------------------|-------------------|
-------------------|-------------------|-------------------|-------------------|


-------------------|-------------------|-------------------|
-------------------|-------------------|-------------------|
-------------------|-------------------|-------------------|
-------------------|-------------------|-------------------|
-------------------|-------------------|-------------------|
-------------------|-------------------|-------------------|


----------------------------------------------------------------|
----------------------------------------------------------------|
--5--------5-----5-----6--------5-----3-----3-------------------|
--5--------5-----5-----6--------5-----3-----3-------------------|
--3--------3-----3-----4--------3-----1-----1-------------------|
----------------------------------------------------------------|


----------------------------------------------------------------|
----------------------------------------------------------------|
--5--------5-----5-----6--------5-----8-----8-------------------|
--5--------5-----5-----6--------5-----8-----8-------------------|
--3--------3-----3-----4--------3-----6-----6-------------------|
----------------------------------------------------------------|


----------------------------------------------------------------|
----------------------------------------------------------------|
--5--------5-----5-----6--------5-----3-----3-------------------|
--5--------5-----5-----6--------5-----3-----3-------------------|
--3--------3-----3-----4--------3-----1-----1-------------------|
----------------------------------------------------------------|


---------------------------------------------------------------|||
---------------------------------------------------------------|||
--5--------5-----5-----6--------5-----8-----8-----------------o|||
--5--------5-----5-----6--------5-----8-----8-----------------o|||
--3--------3-----3-----4--------3-----6-----6------------------|||
---------------------------------------------------------------|||



Strings

E |----|----|----||-3-----------3-----------3-----------3-------------|
B |----|----|----||-1-----------1-----------1-----------1-------------|
G |----|----|----||o--------------------------------------------------|
D |----|----|----||o--------------------------------------------------|
A |----|----|----||---------------------------------------------------|
E |----|----|----||---------------------------------------------------|


--3-----------3-----------3-----------3-------------|
--1-----------1-----------1-----------1-------------|
----------------------------------------------------|
----------------------------------------------------|
----------------------------------------------------|
----------------------------------------------------|


--3-----------3-----------4-----------4-------------|
--1-----------1-----------2-----------2-------------|
----------------------------------------------------|
----------------------------------------------------|
----------------------------------------------------|
----------------------------------------------------|


--4-----------4-----------3-----------3-------------|
--2-----------2-----------1-----------1-------------|
----------------------------------------------------|
----------------------------------------------------|
----------------------------------------------------|
----------------------------------------------------|


--3-----------3-----------4-----------3-------------|
--1-----------1-----------2-----------1-------------|
----------------------------------------------------|
----------------------------------------------------|
----------------------------------------------------|
----------------------------------------------------|


--3-----------3-----------4-----------3-------------|
--1-----------1-----------2-----------1-------------|
----------------------------------------------------|
----------------------------------------------------|
----------------------------------------------------|
----------------------------------------------------|


--3-----------3-----------3-----------3-------------|
--1-----------1-----------1-----------1-------------|
----------------------------------------------------|
----------------------------------------------------|
----------------------------------------------------|
----------------------------------------------------|


--3-----------3-----------3-----------3-------------|
--1-----------1-----------1-----------1-------------|
----------------------------------------------------|
----------------------------------------------------|
----------------------------------------------------|
----------------------------------------------------|


--4-----------4-----------4-----------4-------------|
--2-----------2-----------2-----------2-------------|
----------------------------------------------------|
----------------------------------------------------|
----------------------------------------------------|
----------------------------------------------------|


--3-----------3-----------3-----------4-------------|
--1-----------1-----------1-----------2-------------|
----------------------------------------------------|
----------------------------------------------------|
----------------------------------------------------|
----------------------------------------------------|


--3-----------3-----------3-----------4-------------|--11------|----------|
--1-----------1-----------1-----------2-------------|--13------|-----9----|
----------------------------------------------------|-----10---|--12------|
----------------------------------------------------|----------|----------|
----------------------------------------------------|----------|----------|
----------------------------------------------------|----------|----------|


-----11---|--11-13---|--11------|----------|-----11---|--11-13---|----|----|
--9--14---|----------|--13------|-----9----|--9--14---|----------|----|----|
--10------|----------|-----10---|--12------|--10------|----------|----|----|
----------|----------|----------|----------|----------|----------|----|----|
----------|----------|----------|----------|----------|----------|----|----|
----------|----------|----------|----------|----------|----------|----|----|


----|---|||
----|---|||
----|--o|||
----|--o|||
----|---|||
----|---|||



Bass

G |----|--0--0--0--0--0--0--0--0----|--0--0--0--0--0--0--0--0----||
D |----|----------------------------|----------------------------||
A |----|----------------------------|----------------------------||
E |----|----------------------------|----------------------------||


-0--0--0--0--0--0--0--0----|--0--0--0--0--0--0--0--0----|
o--------------------------|----------------------------|
o--------------------------|----------------------------|
---------------------------|----------------------------|


--0--0--0--0--1--1--1--1----|--1--1--1--1--0--0--0--0----|
----------------------------|----------------------------|
----------------------------|----------------------------|
----------------------------|----------------------------|


--0--0--------0--0--0--0----|--0--0--------0--0--0--0----|
--------3--3----------------|--------3--3----------------|
----------------------------|----------------------------|
----------------------------|----------------------------|


--0--0--0--0--0--0--0--0----|--0--0--0--0--0--0--0--0----|
----------------------------|----------------------------|
----------------------------|----------------------------|
----------------------------|----------------------------|


--1--1--1--1--1--1--1--1----|--0--0--0--0--0--0----------|
----------------------------|--------------------3--3----|
----------------------------|----------------------------|
----------------------------|----------------------------|


--0--0--0--0--0--0----------|----------------------------|
--------------------3--3----|--1--1--1--1--1--1--1--1----|
----------------------------|----------------------------|
----------------------------|----------------------------|


----------------------------|--1--1--1--1--1--1--1--1----|
--1--1--1--1--1--1--1--1----|----------------------------|
----------------------------|----------------------------|
----------------------------|----------------------------|


--1--1--1--1--1--1--1--1----|----------------------------|
----------------------------|----------------------------|
----------------------------|--3--3--3--3--3--3--3--3----|
----------------------------|----------------------------|


----------------------------|--1--1--1--1--1--1--1--1----|
--1--1--1--1--1--1--1--1----|----------------------------|
----------------------------|----------------------------|
----------------------------|----------------------------|


----------------------------|--0--------1----|--0-------------|--0--------1----|
----------------------------|----------------|-----------3----|----------------|
----------------------------|----------------|----------------|----------------|
----------------------------|----------------|----------------|----------------|


--0------------|||
-----------3--o|||
--------------o|||
---------------|||

Login or Register to remove this ad.