Prelude to Empty Skies (Final Fantasy V) Guitar Tab

Submitted: Apr 17, 2010 by trickypat

5
Average: 5 (2 votes)
Download | Listen
Game: Final Fantasy V
Composer(s): Nobuo Uematsu
Style: Arrangement, Fingerstyle
Series: Final Fantasy

This song is also called Prelude to the Void

AutoScroll: Slow | Medium | Fast
Prelude to Empty Skies aka Prelude to the Void
from Final Fantasy V
composed by Nobuo Uematsu
arranged by trickypat
tabbed by trickypat
TablEdited by trickypat
Edited at 2010, April 15th

low-D tuning, no capo, bpm=87
derived from official music sheets.

v1.00 
Melodramatic tune. You can play this with someone playing auriplane's bass version, so you don't have
to lower to D and play those zeros. I know the midsection is twicely tabbed exactly the same, but I don't
know how to show it properly with added notation in .txt-format. Happy playing!

Check http://www.youtube.com/watch?v=UoQD20cGADQ&feature=related for the original.


    |       |       |       |          |       |       |       |          |       |       |       |         
E |----------------------------------|----------------------------------|----------------------------------|
B |----------------------------------|----------------------------------|----------------------------------|
G |----------------------------------|----------------------------------|----------------------------------|
D |----------------------------------|----------------------------------|----------------------------------|
A |----------------------------------|----------------------------------|----------------------------------|
D |-0-0-------------0-0--------------|-0-0-------------0-0--------------|-0-0-------------0-0--------------|
 
  |       |       |       |          |       |       |       |          |       |       |       |         
|----------------------------------||---------------------------------|----------------------------------|
|----------------------------------|*----------------4----------------|-1--------------------------------|
|----------------------------------||3---------------1----------------|----------------------------------|
|----------------------------------||1--------------------------------|-3--------------------------------|
|----------------------------------|*---------------------------------|----------------------------------|
|-0-0-------------0-0--------------||0-0-------------0-0--------------|-0-0-------------0-0--------------|
 
  |       |       |       |          |       |       |       |         
|----------------------------------|---------------------------------||
|----------------------------------|---------------------------------*|
|-0--------------------------------|---------------------------------||
|-----------------3----------------|-6-------------------------------||
|-3---------------1----------------|-4-------------------------------*|
|-0-0-------------0-0--------------|-0-0-------------0-0-------------||

  |       |       |       |          |       |       |       |        >1|       |       |       |         
||------------3---2-------5---2----|-8-----7/5-----------------5-6---||-5--------------------------------|
|*--------3-----------3------------|-8-----------------------8-------||-5---------------5----------------|
||2---------------2----------------|-8-------------------------------||-6---------------6----------------|
||5-----------------------3--------|-----------------8---------------||-----------------7----------------|
|*---------------------------------|-----------------6---------------||----------------------------------|
||0-0-------------0-0--------------|-0-0-------------0-0-------------||-0-0-------------0-0--------------|
 
  |       |       |       |        >2|       |       |       |          |       |       |       |         
|---------------------------------||-9---------------------------9----|-12-------------------------------|
|-1-------------------------------*|-10----10----------------10-------|-13----13-------------------------|
|-0---------------0---------------||-9-------9------------------------|-12------12--------------10--9----|
|-2---------------2---------------||-----------------11---------------|-----------------14---------------|
|-----------------3---------------*|-----------------12---------------|-----------------15---------------|
|-0-0-------------0-0-------------||-0-0-------------0-0--------------|-0-0-------------0-0--------------|
 
  |       |       |       |          |       |       |       |          |       |       |       |         
|----------------------------------|----------------------------------||------------3---2-------5---2----|
|----------------------------------|----------------------------------|*--------3-----------3------------|
|-7---------------3----------------|-2--------------------------------||2---------------2----------------|
|-8---------------5----------------|-5---------------5----------------||5-----------------------3--------|
|-10--------------6----------------|-5---------------5----------------|*---------------------------------|
|-0-0-------------0-0--------------|-0-0-------------0-0--------------||0-0-------------0-0--------------|
 
  |       |       |       |        >1|       |       |       |          |       |       |       |         
|-8-----7/5-----------------5-6---||-5--------------------------------|---------------------------------||
|-8-----------------------8-------||-5---------------5----------------|-1-------------------------------*|
|-8-------------------------------||-6---------------6----------------|-0---------------0---------------||
|-----------------8---------------||-----------------7----------------|-2---------------2---------------||
|-----------------6---------------||----------------------------------|-----------------3---------------*|
|-0-0-------------0-0-------------||-0-0-------------0-0--------------|-0-0-------------0-0-------------||
 
>2|       |       |       |          |       |       |       |          |       |       |       |         
|-9---------------------------9----|-12-------------------------------|----------------------------------|
|-10----10----------------10-------|-13----13-------------------------|----------------------------------|
|-9-------9------------------------|-12------12--------------10--9----|-7---------------3----------------|
|-----------------11---------------|-----------------14---------------|-8---------------5----------------|
|-----------------12---------------|-----------------15---------------|-10--------------6----------------|
|-0-0-------------0-0--------------|-0-0-------------0-0--------------|-0-0-------------0-0--------------|
 
  |       |       |       |         
|----------------------------------|
|----------------------------------|
|-2--------------------------------|
|-5---------------5----------------|
|-5---------------5----------------|
|-0-0-------------0-0--------------|

  |       |       |       |          |       |       |       |          |       |       |       |         
|-8-------7-------8-------7--------|-----8----------------------------|----------------------------------|
|-10------8-------10------8--------|-10------12--9---10---------------|----------------------------------|
|-9-------7-------9-------7--------|-10--------------10---------------|-7---6-------6---6---6---6---6----|
|----------------------------------|-10--------------10---------------|-8---7----------------------------|
|----------------------------------|----------------------------------|-8---7----------------------------|
|-0-0-------------0-0--------------|-0-0-------------0-0--------------|-0-0-------------0-0--------------|
 
  |       |       |       |          |       |       |       |          |       |       |       |         
|----------------------------------|----------------------------------|----------------------------------|
|-5---4-------4---4---4---4---4----|-3-------2-------3-------2--------|-0---3---2-------0----------------|
|-5---4----------------------------|-3-------2-------3-------2--------|-0-----------2---0----------------|
|-5---4----------------------------|-3-------2-------3-------2--------|-0---------------0----------------|
|----------------------------------|----------------------------------|----------------------------------|
|-0-0-------------0-0--------------|-0-0-------------0-0--------------|-0-0-------------0-0--------------|
 
 

Created with TablEdit http://www.tabledit.com/
Login or Register to remove this ad.

1 comment on Prelude to Empty Skies

Whoo! Very nice work. It

5

Whoo! Very nice work. It sounds pretty darn good, and it's playable.

Only change I'd make right off the bat would be in this measure:

       
|-12-------------------------------|
|-13----13-------------------------|
|-12------12--------------10--9----|
|-----------------14---------------|
|-----------------15---------------|
|-0-0-------------0-0--------------|

...changed to:

       
|-12-------------------------------|
|-13----13-------------------------|
|-12------12------9-------10--9----|
|-----------------10---------------|
|----------------------------------|
|-0-0-------------0-0--------------|