Prelude (Final Fantasy V) Bass Tab

Submitted: Mar 28, 2013 by Stadenko (Last updated: Apr 01, 2013)

0
Download | Listen
Game: Final Fantasy V
Composer(s): Nobuo Uematsu
Style: 2 or more instruments, Tapping, Transcription
Series: Final Fantasy

AutoScroll: Slow | Medium | Fast
Song: Prelude
Composer: Nobuo Uematsu
Game: Final Fantasy V
System: SNES
Tabber: Stadenko
Date: 2013-03-26

This is my arrangement of Nobuo Uematsu's Final Fantasy Prelude using a tapping style.
It can be played on a 5 string with a different set of strings with a DADGC tuning or whatever is comfortable for you.
Both hands are used to play the arpeggios by tapping. The melody is played with a standard playing style but nothing is stopping you from tapping it.
Watch the linked video to see how I play it. Thanks.


Intro
C |5---7---9-------|
G |----------------|
D |----------------|
A |----------------|
D |3---------------|
A |----------------|

C |11--12--14--19--|
G |----------------|
D |----------------|
A |----------------|
D |5---------------|
A |----------------|

C |17--15--14--12--|
G |----------------|
D |----------------|
A |----------------|
D |6---------------|
A |----------------|

C |19--17--15--14--|
G |----------------|
D |----------------|
A |----------------|
D |8---------------|
A |----------------|


Arpeggios
Part A x2
C |----------------|----------------|12--------------|----------------|
G |----------------|------------12--|----12----------|----------------|
D |----------------|10--12--14------|--------14--12--|10--------------|
A |------------10--|----------------|----------------|----10----------|
D |10--12--14------|----------------|----------------|--------14--12--|
A |----------------|----------------|----------------|----------------|

Part B x2
C |----------------|----------------|9---------------|----------------|
G |----------------|------------9---|----9-----------|----------------|
D |----------------|7---9---10------|--------10--9---|7---------------|
A |------------7---|----------------|----------------|----7-----------|
D |7---9---10------|----------------|----------------|--------10--9---|
A |----------------|----------------|----------------|----------------|

Part C x2
C |----------------|----------------|12--------------|----------------|
G |----------------|------------12--|----12----------|----------------|
D |----------------|10--12--14------|--------14--12--|10--------------|
A |------------10--|----------------|----------------|----10----------|
D |10--12--14------|----------------|----------------|--------14--12--|
A |----------------|----------------|----------------|----------------|

Part D x2
C |----------------|----------------|9---------------|----------------|
G |----------------|------------9---|----9-----------|----------------|
D |----------------|7---9---10------|--------10--9---|7---------------|
A |------------7---|----------------|----------------|----7-----------|
D |7---9---10------|----------------|----------------|--------10--9---|
A |----------------|----------------|----------------|----------------|

Part E x1
C |----------------|----------------|5---------------|----------------|
G |----------------|------------5---|----5-----------|----------------|
D |----------------|3---5---7-------|--------7---5---|3---------------|
A |------------3---|----------------|----------------|----3-----------|
D |3---5---7-------|----------------|----------------|--------7---5---|
A |----------------|----------------|----------------|----------------|

C |----------------|----------------|5---------------|----------------|
G |----------------|------------5---|----5-----------|----------------|
D |----------------|3---5---7-------|--------7---5---|3---------------|
A |------------3---|----------------|----------------|----3-----------|
D |3---5---7-------|----------------|----------------|--------7---3---|
A |----------------|----------------|----------------|----------------|

Part F x2
C |----------------|----------------|7---------------|----------------|
G |----------------|--------7---11--|----11--7-------|----------------|
D |----------------|5---9-----------|------------9---|5---------------|
A |--------5---9---|----------------|----------------|----9---5-------|
D |5---9-----------|----------------|----------------|------------9---|
A |----------------|----------------|----------------|----------------|

Part G x2
C |----------------|----------------|8---------------|----------------|
G |----------------|--------8---12--|----12--8-------|----------------|
D |----------------|6---10----------|------------10--|6---------------|
A |--------6---10--|----------------|----------------|----10--6-------|
D |6---10----------|----------------|----------------|------------10--|
A |----------------|----------------|----------------|----------------|

Part H x2
C |----------------|----------------|10--------------|----------------|
G |----------------|--------10--14--|----14--10------|----------------|
D |----------------|8---12----------|------------12--|8---------------|
A |--------8---12--|----------------|----------------|----12--8-------|
D |8---12----------|----------------|----------------|------------12--|
A |----------------|----------------|----------------|----------------|


Melody
C |----------------|--------14------|----------------|14----------14--|
G |17--------------|16--------------|17--------------|----17--16------|
D |----------------|----------------|----------------|----------------|
A |----------------|----------------|----------------|----------------|
D |----------------|----------------|----------------|----------------|
A |----------------|----------------|----------------|----------------|

C |----------------|--------14------|----------------|16--14----------|
G |17--------------|16--------------|17--------------|--------17--16--|
D |----------------|----------------|----------------|----------------|
A |----------------|----------------|----------------|----------------|
D |----------------|----------------|----------------|----------------|
A |----------------|----------------|----------------|----------------|

C |----------------|----------------|----------------|14--------------|
G |14--------------|--------14------|16----------17--|--------16------|
D |----------------|17--------------|----------------|----------------|
A |----------------|----------------|----------------|----------------|
D |----------------|----------------|----------------|----------------|
A |----------------|----------------|----------------|----------------|

C |----------------|15--14------15--|14----------15--|17------14------|
G |17--------------|--------17------|----------------|----------------|
D |----------------|----------------|----------------|----------------|
A |----------------|----------------|----------------|----------------|
D |----------------|----------------|----------------|----------------|
A |----------------|----------------|----------------|----------------|

C |----------------|----------------|----------------|----------------|
G |----------------|----------------|----------------|----------------|
D |----------------|----------------|----------------|----------------|
A |----------------|----------------|----------------|----------------|
D |----------------|----------------|----------------|----------------|
A |----------------|----------------|----------------|----------------|
Login or Register to remove this ad.

1 comment on Prelude

The intro notes didn't get

The intro notes didn't get the memo and I forgot to include them in my tabs. I couldn't find an option to edit it directly so here they are.

C |5---7---9-------|
G |----------------|
D |----------------|
A |----------------|
D |3---------------|
A |----------------|

C |11--12--14--19--|
G |----------------|
D |----------------|
A |----------------|
D |5---------------|
A |----------------|

C |17--15--14--12--|
G |----------------|
D |----------------|
A |----------------|
D |6---------------|
A |----------------|

C |19--17--15--14--|
G |----------------|
D |----------------|
A |----------------|
D |8---------------|
A |----------------|