Ads

The Evil Lord Exdeath (Final Fantasy V) Bass Tab

Submitted: Aug 02, 2009 by auriplane (Last updated: Sep 16, 2009)

0
Download | Listen
Game: Final Fantasy V
Composer(s): Nobuo Uematsu
Style: Transcription
Series: Final Fantasy

AutoScroll: Slow | Medium | Fast
              Final Fantasy V - The Overlord Exdeath BASS TAB
                           Song by Nobuo Uematsu
 
                  Tabbed by auriplane ([email protected])
 
Four-string bass, standard tuning.

    Rest for two measures at the beginning.

G |----------------|----------------|----------------|----------------|
D |----------------|----------------|----------------|----------------|
A |----------------|----------------|----------------|----------------|
E |3-------2-------|1---------------|----------------|----------------|

G |----------------|----------------|----------------|----------------|
D |----------------|----------------|----------------|----------------|
A |----------------|----------------|----------------|----------------|
E |10------9-------|8---------------|----------------|20\7------------|

G |----------------|----------------|----------------|----------------|
D |----------------|--------7-6-----|----------------|----------------|
A |--------9-------|----------------|--------9-------|--------------8-| x2
E |7-----7---------|7---7-7---------|7-----7---------|7---7-7-7-9-10--|

G |----------------|--------7-6-----|----------------|----------------|
D |--------9-------|----------------|--------9-------|--------------8-|
A |7-----7---------|7---7-7---------|7-----7---------|7---7-7-7-9-10--| x2
E |----------------|----------------|----------------|----------------|

G |----------------|----------------|
D |------------9---|L---8-7-6-------|
A |----------------|---------10-9---| x4
E |7---7-----------|----------------|

G |------------9---|L---8-7-6-------|
D |----------------|---------10-9---|
A |7---7-----------|----------------| x4
E |----------------|----------------|
Login or Register to remove this ad.