A New World (Final Fantasy V) Bass/Guitar Tab

Submitted: Dec 12, 2011 by hashel

5
Average: 5 (4 votes)
Download | Listen
Game: Final Fantasy V
Composer(s): Nobuo Uematsu
Style: 2 or more instruments, Transcription
Series: Final Fantasy

AutoScroll: Slow | Medium | Fast
Vibraphone Melody

E |----|-------------------|----------------------------------------||
B |----|-------------------|--------------------13-15---------------||
G |----|-------------------|----------------------------------------||
D |----|-------------------|----------------------------------------||
A |----|-------------------|----------------------------------------||
E |----|-------------------|----------------------------------------||


---------------------------------------|
-16-------------16-15-11---------------|
o--------------------------------------|
o--------------------------------------|
---------------------------------------|
---------------------------------------|


----------------------------------------|
--13----------------13-15---------------|
--------12------------------------------|
----------------------------------------|
----------------------------------------|
----------------------------------------|


--------------------18------------------|
--16----------15------------------------|
----------------------------------------|
----------------------------------------|
----------------------------------------|
----------------------------------------|


--15----------------16-18---------------|
----------------------------------------|
----------------------------------------|
----------------------------------------|
----------------------------------------|
----------------------------------------|


--20-------------20-18-16---------------|
----------------------------------------|
----------------------------------------|
----------------------------------------|
----------------------------------------|
----------------------------------------|


--18------------------------------------|
--------16----------13-16---------------|
----------------------------------------|
----------------------------------------|
----------------------------------------|
----------------------------------------|


--13------------------------------------|
-----------------14-14-16---------------|
----------------------------------------|
----------------------------------------|
----------------------------------------|
----------------------------------------|


--13------------------------------------|
--------------------13-15---------------|
----------------------------------------|
----------------------------------------|
----------------------------------------|
----------------------------------------|


----------------------------------------|
--17-------------17-15-12---------------|
----------------------------------------|
----------------------------------------|
----------------------------------------|
----------------------------------------|


----------------------------------------|
--13----------------13-15---------------|
--------14------------------------------|
----------------------------------------|
----------------------------------------|
----------------------------------------|


-----------------------15---------------|
--17-------------15-15------------------|
----------------------------------------|
----------------------------------------|
----------------------------------------|
----------------------------------------|


--12----------------13-15---------------|
----------------------------------------|
----------------------------------------|
----------------------------------------|
----------------------------------------|
----------------------------------------|


--17-------------17-15-13---------------|
----------------------------------------|
----------------------------------------|
----------------------------------------|
----------------------------------------|
----------------------------------------|


--15----12-------------12---------------|
--------------13------------------------|
----------------------------------------|
----------------------------------------|
----------------------------------------|
----------------------------------------|


----------------------------------------|-------------------|
--15------------------------------------|-------------------|
----------------------------------------|-------------------|
----------------------------------------|-------------------|
----------------------------------------|-------------------|
----------------------------------------|-------------------|


-------------------|-------------------|-------------------|-------------------|
-------------------|-------------------|-------------------|-------------------|
-------------------|-------------------|-------------------|-------------------|
-------------------|-------------------|-------------------|-------------------|
-------------------|-------------------|-------------------|-------------------|
-------------------|-------------------|-------------------|-------------------|


-------------------|-------------------|-------------------|
-------------------|-------------------|-------------------|
-------------------|-------------------|-------------------|
-------------------|-------------------|-------------------|
-------------------|-------------------|-------------------|
-------------------|-------------------|-------------------|


---------------------------------------||----||
--------------------13-15--------------||----||
--------------------------------------o||----||
--------------------------------------o||----||
---------------------------------------||----||
---------------------------------------||----||



Flute Melody

E |----|-------------------|-------------------||------------------|
B |----|-------------------|-------------------||------------------|
G |----|-------------------|-------------------||o-----------------|
D |----|-------------------|-------------------||o-----------------|
A |----|-------------------|-------------------||------------------|
E |----|-------------------|-------------------||------------------|


-------------------|-------------------|-------------------|-------------------|
-------------------|-------------------|-------------------|-------------------|
-------------------|-------------------|-------------------|-------------------|
-------------------|-------------------|-------------------|-------------------|
-------------------|-------------------|-------------------|-------------------|
-------------------|-------------------|-------------------|-------------------|


-------------------|-------------------|-------------------|
-------------------|-------------------|-------------------|
-------------------|-------------------|-------------------|
-------------------|-------------------|-------------------|
-------------------|-------------------|-------------------|
-------------------|-------------------|-------------------|


----------------------|--------------10------------------------|
--10-12---------------|--13----------------13-12---------------|
----------------------|----------------------------------------|
----------------------|----------------------------------------|
----------------------|----------------------------------------|
----------------------|----------------------------------------|


----------------------|-----10---------------|--10-------10---------------|
--10-12---------------|--13------------------|-----13-11------------------|
----------------------|----------------------|----------------------------|
----------------------|----------------------|----------------------------|
----------------------|----------------------|----------------------------|
----------------------|----------------------|----------------------------|


--12----10----12-------12---------------|-------------------|
----------------------------------------|--8----------------|
----------------------------------------|-------------------|
----------------------------------------|-------------------|
----------------------------------------|-------------------|
----------------------------------------|-------------------|


-----------------------15---------------|
--7-----------------19------------------|
----------------------------------------|
----------------------------------------|
----------------------------------------|
----------------------------------------|


--17-------------17-15------------------|--15-20---------------------|
-----------------------18---------------|--------17------------------|
----------------------------------------|----------------------------|
----------------------------------------|----------------------------|
----------------------------------------|----------------------------|
----------------------------------------|----------------------------|


----------------------------------------|-----17---------------------|
--18-------------15-17-18---------------|--17----13------------------|
----------------------------------------|----------------------------|
----------------------------------------|----------------------------|
----------------------------------------|----------------------------|
----------------------------------------|----------------------------|


--17-------------17-15-13---------------|--15------------------------|
----------------------------------------|-----17-13-17---------------|
----------------------------------------|----------------------------|
----------------------------------------|----------------------------|
----------------------------------------|----------------------------|
----------------------------------------|----------------------------|


-------------------|------------------||----||
--15---------------|------------------||----||
-------------------|-----------------o||----||
-------------------|-----------------o||----||
-------------------|------------------||----||
-------------------|------------------||----||


Rhythm

E |----|----------------------------------------|
B |----|----------------------------------------|
G |----|-----5-----5-----5-----5----------------|
D |----|--7-----------7-------------------------|
A |----|----------------------------------------|
E |----|----------------------------------------|


----------------------------------------||
----------------------------------------||
-----5-----5-----5-----5----------------||
--7-----------7-------------------------||
----------------------------------------||
----------------------------------------||


---------------------------------------|
----4-----4-----4-----4----------------|
o5-----------5-------------------------|
o--------------------------------------|
---------------------------------------|
---------------------------------------|


----------------------------------------|
-----4-----4-----4-----4----------------|
--5-----------5-------------------------|
----------------------------------------|
----------------------------------------|
----------------------------------------|


----------------------------------------|
-----4-----4-----4-----4----------------|
--5-----------5-------------------------|
----------------------------------------|
----------------------------------------|
----------------------------------------|


----------------------------------------|
-----4-----4-----4-----4----------------|
--5-----------5-------------------------|
----------------------------------------|
----------------------------------------|
----------------------------------------|


----------------------------------------|
-----6-----6-----6-----6----------------|
--6-----------6-------------------------|
----------------------------------------|
----------------------------------------|
----------------------------------------|


----------------------------------------|
-----4-----4-----4-----4----------------|
--5-----------5-------------------------|
----------------------------------------|
----------------------------------------|
----------------------------------------|


----------------------------------------|
-----6-----6-----6-----6----------------|
--6-----------6-------------------------|
----------------------------------------|
----------------------------------------|
----------------------------------------|


----------------------------------------|
-----6-----6----------------------------|
--6-----------5-------------------------|
----------------------------------------|
----------------------------------------|
----------------------------------------|


----------------------------------------|
-----5--6--5-----5--6--5----------------|
----------------------------------------|
--7-----------7-------------------------|
----------------------------------------|
----------------------------------------|


----------------------------------------|
-----5--6--5-----5----------------------|
----------------------------------------|
--7-----------7-----7--5----------------|
----------------------------------------|
----------------------------------------|


----------------------------------------|
----------------------------------------|
-----9--10-9-----9--10-9----------------|
----------------------------------------|
--8-----------8-------------------------|
----------------------------------------|


----------------------------------------|
----------------------------------------|
-----9--10-9-----9--10-9----------------|
----------------------------------------|
--8-----------8-------------------------|
----------------------------------------|


----------------------------------------|
-----8--10-8-----8--10-8----------------|
----------------------------------------|
--8-----------8-------------------------|
----------------------------------------|
----------------------------------------|


----------------------------------------|
-----5--6--5-----5--6--5----------------|
----------------------------------------|
--7-----------7-------------------------|
----------------------------------------|
----------------------------------------|


--------------10------------------------|
-----8--10-8-----8--10-8----------------|
----------------------------------------|
--0-------------------------------------|
----------------------------------------|
----------------------------------------|


----------------------------------------|-------------------|
----------------------------------------|-------------------|
----------------------------------------|-------------------|
--0-------------------------------------|-------------------|
----------------------------------------|-------------------|
----------------------------------------|-------------------|


-------------------|-------------------|-------------------|-------------------|
-------------------|-------------------|-------------------|-------------------|
-------------------|-------------------|-------------------|-------------------|
-------------------|-------------------|-------------------|-------------------|
-------------------|-------------------|-------------------|-------------------|
-------------------|-------------------|-------------------|-------------------|


-------------------|-------------------|------------------||----||
-------------------|-------------------|------------------||----||
-------------------|-------------------|-----------------o||----||
-------------------|-------------------|-----------------o||----||
-------------------|-------------------|------------------||----||
-------------------|-------------------|------------------||----||


Bass

G |----|----------------------------------------|
D |----|----------------------------------------|
A |----|--0--0----------------------------------|
E |----|----------------------------------------|


----------------------------------------||
----------------------------------------||
--0--0----------------------------------||
----------------------------------------||


---------------------------------------|
o--------------------------------------|
o3--3----------------------------------|
-------------------3--3----------------|


----------------------------------------|
----------------------------------------|
--3--3--------------1-------------------|
--------3--3----------------------------|


----------------------------------------|
--------------------1-------------------|
----------------------------------------|
--4--4----------------------------------|


-----------1-----0----------------------|
--------------------3--1----------------|
----------------------------------------|
--4-------------------------------------|


----------------------------------------|
----------------------------------------|
--4-----------------4-------------------|
-----------4----------------------------|


----------------------------------------|
----------------------------------------|
--3-----------------3-------------------|
-----------3----------------------------|


----------------------------------------|
--------------------4-------------------|
----------------------------------------|
--2--2----------------------------------|


----------------------------------------|----------------------------|
--3--3----------------------------------|-----------2----------------|
----------------------------------------|--0-------------------------|
--------1--1----------------------------|----------------------------|


----------------------------|----------------------------|
----------------------------|----------------------------|
--0-------------------------|-----------3----------------|
-----------3----------------|--1-------------------------|


----------------------------------------|----------------------------|
-----------3-----2--0-------------------|----------------------------|
-----------------------3----------------|--1--------1----------------|
--1-------------------------------------|----------------------------|


----------------------------|----------------------------------------|
----------------------------|--0-------------------------------------|
--0--------0----------------|-----------------------0----------------|
----------------------------|----------------------------------------|


----------------------------|-------------------|-------------------|
--0-------------------------|-------------------|-------------------|
----------------------------|--1----------------|--0----------------|
----------------------------|-------------------|-------------------|


-------------------|-------------------|-------------------|-------------------|
-------------------|-------------------|-------------------|-------------------|
-------------------|--0----------------|--1----------------|--0----------------|
--3----------------|-------------------|-------------------|-------------------|


-------------------|------------------||----||
--0----------------|-----------------o||----||
-------------------|-----------------o||----||
-------------------|------------------||----||
Login or Register to remove this ad.

10 comments on A New World

This isn't a criticism, but

This isn't a criticism, but I'm curious. Why does your GP6 export have a giant margin at the end of each measure? o_o;

I really don't know ._. i

I really don't know ._. i also have problems when i export midi and gp5 files =/

Is your time signature set to

Is your time signature set to 6/4 somehow? Hehe.

i love the overworld themes

i love the overworld themes from FFV and the tab is perfect *.*

Ahh, I love all 3 of the

Ahh, I love all 3 of the overworld themes :-D

Thanks =)

Thanks =)

Okay, I listened to it, and

Okay, I listened to it, and played along with both melody parts. It's a nice tab. The MP3 you uploaded of your arrangement is missing the most important note in the whole song, though. The song resolves from Dsus4 to D major at the end, and you're missing the third (a Picardy third! :-D) It's in the strings part, which you don't have as part of your tab:

e |15------12--15--14----|
B |----------------------|
G |----------------------|
D |----------------------|
A |----------------------|
E |----------------------|

It's that 14 at the end. (Or 3-----0--3--2 in the original, whatever.)

Oh snap ! i didn't noticed

Oh snap ! i didn't noticed that :o the end doesn't sounds good at all with the B15 instead of E14 :s TY!

It's a little change, but an

It's a little change, but an important note. I still rated the tab 5s :-)

Thanks =) from now i'll post

Thanks =) from now i'll post my tabs in a topic before ^^'