Ads

Lenna's Theme (Final Fantasy V) Bass Tab

Submitted: Jul 12, 2009 by auriplane

0
Download | Listen
Game: Final Fantasy V
Composer(s): Nobuo Uematsu
Style: Transcription
Series: Final Fantasy

AutoScroll: Slow | Medium | Fast
                Final Fantasy V - Lenna's Theme BASS TAB
                         Song by Nobuo Uematsu
            
                Tabbed by auriplane ([email protected])


Rest for ten measures at the beginning.

Four-string bass, standard tuning.

G |----------------|----------------|----------------|----------------|
D |----------------|----------------|----------------|----7s3---0-5s2-|
A |----------------|----------------|----------------|0-7-------------|
E |1---------------|1---------------|0---------------|--------3-------|
                               
G |----------------|----------------|----------------|----------------|
D |----------------|----------------|----------------|----------------|
A |----------------|----------------|----------------|----------------|
E |1---------------|1---------------|0---------------|1---------------|
                               
G |----------------|----------------|----------------|----------------|
D |----------------|----------------|----------------|----------------|
A |3------------3--|3------------3--|3-------1-------|----------------|
E |----------------|----------------|----------------|4---------------|
Login or Register to remove this ad.