Home, Sweet Home (Final Fantasy V) Guitar Tab

Submitted: Mar 07, 2012 by iamHoustonian

0
Download | Listen
Game: Final Fantasy V
Composer(s): Nobuo Uematsu
Style: 2 or more instruments, Transcription
Series: Final Fantasy

This song is also called Distant Homeland

AutoScroll: Slow | Medium | Fast
Distant Homeland  ( aka "Home, Sweet Home" )
Final Fantasy V
Composer: Nobuo Uematsu
Tabbed By: iamHoustonian
Date Tabbed: 3/5/2012









Guitar I
Part I

e|----------------------------------------------------------------------------------------------------
B|-------------------------10---9-----------------9---------------------------------------------------
G|---------11------11---------------11---9---11-------11----------------------------------------------
D|--9---------------------------------------------------------9--------------9------------------------
A|-------------------------------------------------------------------12-------------------------------
E|----------------------------------------------------------------------------------------------------
  

e|----------------------------------------------------------------------------------------------------
B|-------------------------10---9-----------------9----------12------10------12-----------------------
G|---------11------11---------------11---9---11-------11----------------------------------------------
D|--9-------------------------------------------------------------------------------------------------
A|----------------------------------------------------------------------------------------------------
E|----------------------------------------------------------------------------------------------------

  

Guitar I
Part II

e|-------------------------17------16-------------16--------------------------------------------------
B|---------19------19-------------------19---17--------19---------------------------------------------
G|-16----------------------------------------------------------16--------------16---------------------
D|---------------------------------------------------------------------19-----------------------------
A|----------------------------------------------------------------------------------------------------
E|----------------------------------------------------------------------------------------------------


e|-------------------------17------16-------------16-----------19------17------19---------------------
B|---------19------19-------------------19---17--------19---------------------------------------------
G|-16-------------------------------------------------------------------------------------------------
D|----------------------------------------------------------------------------------------------------
A|----------------------------------------------------------------------------------------------------
E|----------------------------------------------------------------------------------------------------
   

e|-19------19---21---17----------------17------16-----------------------------------------------------
B|------------------------19---17----------------------19---------------------------------------------
G|-------------------------------------------------------------16--------------16---------------------
D|---------------------------------------------------------------------19-----------------------------
A|----------------------------------------------------------------------------------------------------
E|----------------------------------------------------------------------------------------------------


e|-------------------------17------16-------------16-----------19------17------19---------------------
B|---------19------19-------------------19---17--------19---------------------------------------------
G|-16-------------------------------------------------------------------------------------------------
D|----------------------------------------------------------------------------------------------------
A|----------------------------------------------------------------------------------------------------
E|----------------------------------------------------------------------------------------------------
    


Guitar I
Part III

e|----------------------------------------------------------------------------------------------------
B|----------------------------------------------------------------------------------------------------
G|----------------------------------------------------------------------------------------------------
D|------------------------16---14------------------14-------------------------------------------------
A|-14------14---16---17-------------17---16---17-----------17------16------14------16-----------------
E|----------------------------------------------------------------------------------------------------
   

e|----------------------------------------------------------------------------------------------------
B|----------------------------------------------------------------------------------------------------
G|----------------------------------------------------------------------------------------------------
D|------------------------16---14------------------14------16------14--------------17-----------------
A|-14------14---16---17-------------17---16---17---------------------------17-------------------------
E|----------------------------------------------------------------------------------------------------
   

Play Guitar I Part II again
Then restart from the beginning









Guitar II
Part I

e|----------------------------------------------------------------------------------------------------
B|----------------------------------------------------------------------------------------------------
G|---------------------------------9------6-----------------------------------------------------------
D|--9-----------------------7----------------------------------------7------9-------------------------
A|-----------------------------------------------10---------------------------------------------------
E|----------------------------------------------------------------------------------------------------
  

e|----------------------------------------------------------------------------------------------------
B|----------------------------------------------------------------------------------------------------
G|---------------------------------9------6-----------------------------------------------------------
D|--9-----------------------7----------------------------------------7------9-------------------------
A|-----------------------------------------------10---------------------------------------------------
E|----------------------------------------------------------------------------------------------------



Guitar II
Part II

e|----------------------------------------------------------------------------------------------------
B|----------------------------------------------------------------------------------------------------
G|----------------------------------------------------------------------------------------------------
D|--------------------------2-------------------------------------------------------------------------
A|--2---------------------------------------------------5-------2------------------------------2---4--
E|----------------------------------------------------------------------5-------3------3---5----------


e|----------------------------------------------------------------------------------------------------
B|----------------------------------------------------------------------------------------------------
G|----------------------------------------------------------------------------------------------------
D|--------------------------2-----------------------------------2-------4-------5---------------------
A|--5---------------------------------------------------5------------------------------5---4---2------
E|-------------------------------------------------------------------------------------------------5--


e|----------------------------------------------------------------------------------------------------
B|----------------------------------------------------------------------------------------------------
G|-------------------4------2-------------------------------------------------------------------------
D|--------------------------------------------------5------4------2-----------------------------------
A|--2-------------------------------------------------------------------------------------------------
E|---------------------------------5---------3--------------------------------------------------------


e|----------------------------------------------------------------------------------------------------
B|----------------------------------------------------------------------------------------------------
G|----------------------------------------------------------------------------------------------------
D|--------------------------2----------------------------------2------4------5------------------------
A|--2---------------------------------------------------5---------------------------------------------
E|----------------------------------------------------------------------------------------------------



Guitar II
Part III

e|-------------------------------5------4-------------------------------------------------------------
B|----------7------7------5-------------------------7------7------5-----------------------------------
G|----------------------------------------------------------------------------------------------------
D|----------------------------------------------------------------------------------------------------
A|----------------------------------------------------------------------------------------------------
E|----------------------------------------------------------------------------------------------------


e|-------------------------------5------4------------------7------5------7----------------------------
B|----------7------7------5-------------------------7-------------------------------------------------
G|----------------------------------------------------------------------------------------------------
D|----------------------------------------------------------------------------------------------------
A|----------------------------------------------------------------------------------------------------
E|----------------------------------------------------------------------------------------------------


Play Guitar II Part II again
Then restart from the beginning


Login or Register to remove this ad.