Ads

Four Valiant Hearts (Final Fantasy V) Guitar Tab

Submitted: Feb 07, 2013 by JordanVS

5
Average: 5 (4 votes)
Download | Listen
Game: Final Fantasy V
Composer(s): Nobuo Uematsu
Style: Arrangement, Fingerstyle
Series: Final Fantasy

This song is also called World Map Theme

AutoScroll: Slow | Medium | Fast
Four Valiant Hearts                          
World Map Theme
Final Fantasy V
Nobuo Uematsu
JordanVS



*Capo on the 1st fret!



           |--3--|                    |--3--|             
      Q    E  E  E  Q    Q       Q    E  E  E  Q    Q     
E||---------------------------|--------------------------|
B||---0-----------------------|---------------------2----|
G||*--1-----------------------|--------------------------|
D||*--2-------------1----2----|--4-----------------------|
A||---------------------------|--4-----------------------|
E||---0----0--0--0--0---------|--0-------0--0--0----0----|


       |--3--|                    |--3--|             
  Q    E  E  E  Q    Q       Q    E  E  E  Q    Q     
--------------------------|--------------------------|
--0-----------------------|--------------------------|
--0-----------------------|--0-------------0----2----|
--2-----------------------|--2-----------------------|
--------------------------|--4-----------------------|
--0----0--0--0--0---------|--0-------0--0--0----0----|


1.
       |--3--|                    |--3--|             
  Q    E  E  E  Q    Q       Q    E  E  E  Q    Q     
----------------0---------|--------------------------|
--0-------------0---------|--2-----------------------|
--0-----------------------|--2------------------2----|
--0-----------------------|--2-----------------------|
--------------------------|--0-------0--0--0----0----|
--3----3--3--3--3---------|--------------------------|


       |--3--|                    |--3--|               
  Q    E  E  E  Q    Q       Q    E  E  E  Q    Q       
----------------2---------|---------------------------||
--0-------------3---------|--2------------------------||
--0-----------------------|--2-----------------------*||
--0-----------------------|--------------------------*||
--------------------------|--0-------0--0--0----0-----||
--3----3--3--3--3---------|---------------------------||

2.

       |--3--|                    |--3--|             
  Q    E  E  E  Q    Q       Q    E  E  E  Q    Q     
--------------------------|--------------------------|
--0-------------3---------|--2-----------------------|
--0-------------4---------|--2------------------2----|
--0-----------------------|--2-----------------------|
--------------------------|--0-------0--0--0----0----|
--3----3--3--3--3---------|--------------------------|


       |--3--|       |--3--|          |--3--|  |--3--|  |--3--|   
  Q    E  E  E  Q    E  E  E     Q    E  E  E  E  E  E  E  E  E   
------------------------------|----------------------------------|
--0---------------------------|----------------------------------|
------------------------------|----------------------------------|
--2---------------------------|--1-------------------------------|
--2----2--2--2--2----2--2--2--|--2----2--2--2--2-----2-----2-----|
------------------------------|----------------------------------|


  Q    Q    Q    Q       Q    Q    Q    Q     
----------------------|----------------------|
--0--------------1----|----------------------|
----------------------|--2---------0----2----|
-----------------3----|-----------------3----|
-------0----3---------|-------0----3---------|
--1-------------------|--1-------------------|


  E  E  E  E  E  E  E  E     E  E  E  E  E  E  E  E   
--------------------------|--------------------------|
--0-----------0-----------|--0-----------------------|
-----------1-----1--------|-----1--------1-----------|
--------2-----------2-----|--------2--------2--------|
-----2-----------------2--|-----------2--------2-----|
--0-----------------------|-----------------------4--|


  Q    Q    Q    Q       Q    Q    Q    Q       Q    Q    Q    Q     
----------------------|----------------------|----------------------|
--0--------------1----|----------------------|--0-------------------|
-----------------0----|--2---------0----2----|----------------------|
------------2---------|------------2---------|-------2----4----2----|
--0----3--------------|--0----3--------------|--2-------------------|
----------------------|----------------------|----------------------|


  Q    Q    Q    Q       W                  
----------------------|-------------------||
----------------------|--0----------------||
----------------------|-------------------||
-------1----4----1----|--2----------------||
--2-------------------|-------------------||
----------------------|--0----------------||




Duration Legend
---------------
W - whole
H - half
Q - quarter
E - 8th
. - note dotted
|-n-|  - n-tuplets


Tablature Legend
----------------
L - tied note
^ - brush up
v - brush down
Login or Register to remove this ad.

4 comments on Four Valiant Hearts

nice tab !

5

I like the triplets, it sounds really RPG-style ^^

Love it!

5

This is great, The only song I remember from FF5.

The only song you remember?

The only song you remember? Booooo hahaha ;)

Very nice! Although I'm

Very nice! Although I'm looking into the opening chords...I agree with the first two but am not sure about the third and fourth.