The Fire-Powered Ship (Final Fantasy V) Bass Tab

Submitted: Aug 02, 2009 by auriplane (Last updated: Aug 19, 2014)

0
Download | Listen
Game: Final Fantasy V
Composer(s): Nobuo Uematsu
Style: Transcription
Series: Final Fantasy

AutoScroll: Slow | Medium | Fast
            Final Fantasy V - The Fire-Powered Ship BASS TAB
                          Song by Nobuo Uematsu

                 Tabbed by auriplane ([email protected])


Five-string bass, standard tuning.

    Intro             4/4 time

G |------------------------|------------------------|
D |------------------------|------------------------|
A |------------------------|------------------------|
E |6-----6-----6-----6-----|6-----6-----6-----6-----|
B |------------------------|------------------------|

    Part A  (4x)      4/4 time

G |------------------------|------------------------|
D |------------------------|------------------------|
A |------------------------|------------------4-3---|
E |------------------------|------------6---------6-|
B |4-----4-4-4-4-----4-----|4-4-4-4---4-----4-------|
                                                     
G |------------------------|------------------------|
D |------------------------|------------------------|
A |------------------------|------------6-----6-----|
E |------------------------|------------------------|
B |4-----4-4-4-4-----4-----|4-4-4-4---4-----4-----4-|

    Part B  (2x)      5/4 time

G |------------------------|------------------|
D |------------------------|------------------|
A |------------------------|------------------|
E |------------------------|------------------|
B |4-----4-----4-4-4-4-----|2-2-2-2-----2-----|
                                               
G |------------------------|------------------|
D |------------------------|------------------|
A |------------------------|------------------|
E |------------------------|------------------|
B |1-----1-----1-1-1-1-----|2-2-2-2-----2-----|

    Repeat back to Part A.


By the way, when you play the E♭ octaves, there's a tiny grace note slide up 
from 5 to 6.  It's up to you if you want to add that.

Login or Register to remove this ad.