The Final Battle (Final Fantasy V) Guitar Tab

Submitted: Dec 14, 2012 by JordanVS (Last updated: Dec 14, 2012)

5
Average: 5 (5 votes)
Download | Listen
Game: Final Fantasy V
Composer(s): Nobuo Uematsu
Style: Arrangement, Fingerstyle
Series: Final Fantasy

AutoScroll: Slow | Medium | Fast
The Final Battle                                 
Neo Exdeath Battle Theme 
Final Fantasy V
Nobuo Uematsu
JordanVS




     W                   H        H           H        H         
E||-------------------|--1-----------------|--2-----------------|
B||-------------------|--0-----------------|--0-----------------|
G||--4----------------|--------------------|--------------------|
D||--4----------------|--------------------|--4-----------------|
A||--2----------------|--2-----------------|-----------4--------|
E||-------------------|-----------1--------|--------------------|


  W                   W                   H        H         
--1----------------|-------------------|--------------------|
--0----------------|-------------------|--------------------|
-------------------|-------------------|--5-----------------|
--0----------------|--4----------------|--4-----------------|
-------------------|--4----------------|-----------3--------|
-------------------|--2----------------|--4-----------------|


  H        H           W                   W                 
--------------------|-------------------|-------------------|
--2-----------------|-------------------|-------------------|
--------------------|--5----------------|--4----------------|
--4-----------------|--4----------------|--4----------------|
--4-----------------|--0----------------|--2----------------|
-----------4--------|-------------------|-------------------|


  H        H           H        H           W                 
--1-----------------|--2-----------------|--1----------------|
--0-----------------|--0-----------------|--0----------------|
--------------------|--------------------|-------------------|
--------------------|--4-----------------|--0----------------|
--2-----------------|-----------4--------|-------------------|
-----------1--------|--------------------|-------------------|


  W                   H        H           E  E  E  E  E  E  E  E   
-------------------|--------------------|--------------------------|
-------------------|--------------------|--2-----------------------|
-------------------|--5-----------------|--------------------------|
--4----------------|--4-----------------|--4-----------------------|
--4----------------|-----------3--------|--4-----------------------|
--2----------------|--4-----------------|--2--2--2--2--4--4--4--4--|


                             ^                                                 
  E  E  E  E  E  E  E  E     H.           S S S S    H        S  S  S S  Q     
--------------------------|---------------------0-|--1----------------0h-1----|
--------------------------|-------------------3---|--0--------0h-2h-3---------|
--5-----------------------|--4------------L-4-----|---------------------------|
--4-----------------------|--4------------L-------|---------------------------|
--0--0--0--0--1--1--1--1--|--2------------L-------|--2------------------------|
--------------------------|-----------------------|---------------------------|


  H        S  S  S S  Q       H.           S S  S  S    H.           S S S S  
--2----------------0h-2----|--1----------------------|---------------------0-|
--0--------0h-2h-3---------|--0----------------------|--0------------L---3---|
---------------------------|-----------------0h-2h-3-|-----------------4-----|
---------------------------|---------------4---------|--4------------L-------|
--2------------------------|--2----------------------|--2------------L-------|
---------------------------|-------------------------|-----------------------|


  H        S  S  S S  Q       H        S  S  S S  Q     
--1----------------0h-1----|--2----------------0h-2----|
--0--------0h-2h-3---------|--0--------0h-2h-3---------|
---------------------------|---------------------------|
---------------------------|---------------------------|
--2------------------------|--2------------------------|
---------------------------|---------------------------|


  H        S  S  S S  Q       E  E  E  E  E  E     E  E  E  E  E  E   
--1----------------0h-1----|--0-----------------|--------------------|
--0--------0h-2h-3---------|-----4--------3--2--|--1--0--------0-----|
---------------------------|-----------0--------|-----------------2--|
---------------------------|--------4-----------|--------3--4--------|
--2------------------------|--------------------|--------------0-----|
---------------------------|--0-----------2-----|--3-----------------|


  Q    E  Q    E  Q       E  Q    E  S S  S  S E  E   
-----------------------|-----------------------------|
-----------------------|-----------------------------|
--0-------2-------3----|-----2-------0---------0-----|
-------2-------2-------|--2-------2----4p-2h-4----0--|
--1-------1-------1----|--1----------1---------------|
-----------------------|-----------------------3-----|


  E  E  E  E  E  E  E  E     E  E  E  E  E  E  E  E   
--0-----------------------|--------------------------|
-----4--------0-----3--2--|--1--0--------------0-----|
-----------0-----0--------|--------------2--------2--|
--------4-----------------|--------3--4-----4--------|
--------------------------|--------------------0-----|
--0-----------------2-----|--3-----------------------|


  H        S  S S  S  Q       H        S  S  S S  Q     
---------------------------|-------------------0h-1----|
---------------------------|--6--------0h-2h-3---------|
--4-------------2h-3h-4----|---------------------------|
-----------4h-5------------|--3------------------------|
--2------------------------|---------------------------|
---------------------------|---------------------------|


  H        S  S  S S  Q       H        S  S  S S  Q     
--2----------------0h-2----|-------------------0h-1----|
-----------0h-2h-3---------|--6--------0h-2h-3---------|
---------------------------|---------------------------|
--4------------------------|--3------------------------|
---------------------------|---------------------------|
---------------------------|---------------------------|


  Q    E  E  E  E  E  E     Q    E  E  E  E  E  E     Q    E  E  E  E  E  E   
-------------------------|--1----------------------|--2----------------------|
--0----------------------|-------------------------|-------------------------|
-------2--0--------------|-------2--0--------------|-------2--0--------------|
-------------4--2--0-----|-------------3--2--0-----|-------------4--2--0-----|
--2-------------------3--|--2-------------------3--|--2-------------------3--|
-------------------------|-------------------------|-------------------------|


                                      |----3----|                               
  Q    E  E  E  E  E  E     Q    Q    Q    Q    Q       Q    Q    Q    S S  E   
--1----------------------|---------------------------|-------------------------|
-------------------------|-----------------3----2----|--1----------------0h-1--|
-------2--0--------------|------------0--------------|--2--------------2-------|
-------------3--2--0-----|--2----4-------------------|--3----------------------|
--2-------------------3--|---------------------------|-------------------------|
-------------------------|--0----0----0----0---------|--1----1----1----1-------|


  Q    Q    Q    Q        Q    Q    Q    Q       Q    Q    Q    Q     
------------5---------|---8---------7---------|-------7---------6----|
--0---------7---------|--10---------8---------|-------5---------4----|
--0-------------------|-----------------------|----------------------|
----------------------|-----------------------|----------------------|
----------------------|-----------------------|----------------------|
--0----0----0----0----|---0----0----0----0----|--0----0----0----0----|


                                   |----3----|                               
  Q    Q    Q    Q       Q    Q    Q    Q    Q       Q    Q    Q    S S  E   
-------8---------7----|---------------------------|-------------------------|
-------6---------5----|-----------------3----2----|--1----------------0h-1--|
----------------------|------------0--------------|--2--------------2-------|
----------------------|--2----4-------------------|--3----------------------|
----------------------|---------------------------|-------------------------|
--0----0----0----0----|--0----0----0----0---------|--1----1----1----1-------|


  Q    Q    E  E  E  E     Q    Q    Q    Q       E  E  E  E  E  E  E  E   
--0------------1-----0--|----------------------|--------------------------|
--1---------------------|--3-------------------|--1--------1--------1-----|
--0---------------------|--2-------------------|-----2--------2--------2--|
------------------------|--4-------------------|--------3--------3--------|
--3----3----3-----3-----|--5----5----5----5----|--------------------------|
------------------------|----------------------|--1--------1--------1-----|


  E  E  E  E  E  E  E  E     H.           Q       H.           Q     
-----------------------0--|--------------------|--------------------|
-----1--------1-----3-----|--0------------1----|--0-----------------|
--------2--------2--------|--0------------2----|--0-----------------|
--3--------3--------------|--2------------0----|--------------------|
--------------------------|--------------------|---------------2----|
-----1--------1-----------|--------------------|--0-----------------|


  E  E  E  E  E  E  E  E     E  E  E  E  E  E  E  E     H.           Q     
--------------------------|--------------------------|--------------------|
--------------------------|--------------------0--1--|--------------------|
--2--------2--------2-----|-----2--------2-----------|--1------------2----|
-----3--------3--------3--|--------3--------3--------|--2------------4----|
--5-----5--------5--------|--5--------5--------------|---------------2----|
--------------------------|--------------------------|--0-----------------|


  Q.     Q.     Q       E  E  E  E  E  E  E  E     E  E  E  E  E  E  E  E   
---------------------|--------------------------|-----------------------0--|
---------------------|--1--------1--------1-----|-----1--------1-----3-----|
--1------------------|-----2--------2--------2--|--------2--------2--------|
--2------------------|--------3--------3--------|--3--------3--------------|
---------------------|--------------------------|--------------------------|
--0------2------4----|--1--------1--------1-----|-----1--------1-----------|


  H.           Q       Q.     Q.     Q       E  E  E  E  E  E  E  E   
--------------------|---------------------|--------------------------|
--0------------1----|--0------------------|--3--------3--------3-----|
--0------------2----|--1------------------|-----3--------3--------3--|
--2------------0----|---------------------|--------3--------3--------|
--------------------|---------------------|--1--------1--------1-----|
--------------------|--0------2------4----|--------------------------|


  E  E  E  E  E  E  E  E     W                   W                 
--------------------0--1--|--0----------------|--0----------------|
-----3--------3-----------|--0----------------|--0----------------|
--------3--------3--------|--2----------------|--1----------------|
--3--------3--------------|--2----------------|-------------------|
-----1--------1-----------|-------------------|-------------------|
--------------------------|-------------------|--0----------------|


  Q.     Q.     Q       E  Q.     Q    Q       Q.     Q.     Q     
---------------------|----------------------|---------------------|
---------0------1----|-----3------1----0----|---------------------|
--2------------------|----------------------|--2------0------2----|
---------------------|-----0----------------|---------------------|
--0------2------3----|------------3----2----|--0-------------0----|
---------------------|----------------------|---------3-----------|


  E  Q.     Q    Q       Q.     Q.     Q       E  Q.     Q    Q     
----------------------|---------------------|----------------------|
----------------------|---------0------1----|-----3------1----0----|
------------0----1----|--2------------------|----------------------|
-----2----------------|---------------------|-----0----------------|
----------------------|--0------2------3----|------------3----2----|
-----0------3----4----|---------------------|----------------------|


  E   E  E   E  E  E  E   E     E  E  E   E  E   E  E  E   
-----------------------------|----------------------------|
-----------------------------|----------------------------|
-----------------------------|----------------------------|
---------5p--4--------3p--2--|--------2p--1---------1-----|
--0h--3------------1---------|-----0-------------------2--|
----------------3------------|--2------------1h--4--------|


  Q.     Q.     Q       E  Q.     Q    Q       Q.     Q.     Q     
---------------------|-----0----------------|---------------------|
--0------2------3----|------------3----2----|--0-------------0----|
---------------------|----------------------|---------2-----------|
----------------0----|-----2------0---------|---------------------|
--2------4-----------|-----------------4----|--2------0------2----|
---------------------|----------------------|---------------------|


  E  Q.     Q    Q       Q.     Q.     Q       E  Q.     Q    Q     
----------------------|---------------------|-----0----------------|
----------------------|--0------2------3----|------------3----2----|
------------2----3----|---------------------|----------------------|
-----4----------------|----------------0----|-----2------0---------|
------------0----1----|--2------4-----------|-----------------4----|
-----2----------------|---------------------|----------------------|


  Q.     Q.     Q               Q.     Q.     Q                      
---------------------|-------|---------------------|-------|-------||
--0------------------|-------|---------------------|-------|-------||
---------2-----------|-------|---------------------|-------|-------||
----------------6----|-------|--5------4------3----|-------|-------||
--2------0-----------|-------|---------------------|-------|-------||
----------------4----|-------|--3------2------1----|-------|-------||




Duration Legend
---------------
W - whole
H - half
Q - quarter
E - 8th
S - 16th
. - note dotted
|-n-|  - n-tuplets


Tablature Legend
----------------
L - tied note
h - hammer on
p - pull off
^ - brush up
v - brush down
Login or Register to remove this ad.