Ads

The Fierce Battle (Final Fantasy V) Guitar Tab

Submitted: Sep 24, 2012 by JordanVS

5
Average: 5 (7 votes)
Download | Listen
Game: Final Fantasy V
Composer(s): Nobuo Uematsu
Style: Arrangement, Fingerstyle
Series: Final Fantasy

This song is also called Boss Battle

AutoScroll: Slow | Medium | Fast
The Fierce Battle                           
Boss Battle Theme
Final Fantasy V
Nobuo Uematsu
JordanVS

*Capo on 2nd fret



     H        H           H        H           H        H         
E||--------------------|--------------------|--------------------|
B||-----------0--------|--------------------|-----------3--------|
G||--------------------|--3-----------------|--------------------|
D||--------------------|--------------------|--------------------|
A||--------------------|-----------2--------|--------------------|
E||--0-----------------|--------------------|--0-----------------|


  H        H           E  E  E  E  E  E  E  E   
--------------------|--------------------------|
--2-----------------|--------------0-----------|
--------------------|-----------------------0--|
--------------------|--------------1--2--4-----|
-----------4--------|-----------2--------------|
--------------------|--0--2--3-----------------|


  E  E  E  E  E  E  E  E     E  E  E  E  E  E  E  E   
--------------------------|--------------------------|
--------------------------|--------------3-----------|
--3--------------------0--|-----------------------0--|
--------------1--2--4-----|--------------0--2--4-----|
-----------2--------------|-----------2--------------|
--0--2--3-----------------|--0--2--3-----------------|


  E  E  E  E  E  E  E  E     E  E  E  E  E  E  E  E   
--------------------------|--------------------------|
--2-----------------------|--0--0-----0--1--1-----1--|
-----------------------0--|--0--0-----0--2--2-----2--|
--------------1--2--4-----|--2--2-----2--2--2-----2--|
-----------2--------------|--------------------------|
--0--2--3-----------------|--0-----------0-----------|


  E  E  E  E  E  E  E  E     E  E  E  E  E  E  E  E   
--------------------------|--------------------------|
--2--2-----2--1--1-----1--|--0--0-----0--1--1-----1--|
--3--3-----3--2--2-----2--|--0--0-----0--2--2-----2--|
--2--2-----2--2--2-----2--|--2--2-----2--2--2-----2--|
--------------------------|--------------------------|
--0-----------0-----------|--0-----------0-----------|


  E  E  E  E  E  E  E  E       Q    E  E  Q    E  E   
--------------------------||---0-------0--2----0--2--|
--2--2-----2--1--1-----1--||---0----4-----1----------|
--3--3-----3--2--2-----2--||*--0---------------------|
--2--2-----2--2--2-----2--||*-------------2----------|
--------------------------||-------------------------|
--0-----------0-----------||---0---------------------|


  Q    E  E  E  E  Q       H        E  E  E  E   
--3----2--0--2--0-------|--0--------L-----------|
--2----------1-----4----|--0--------L-----------|
--3---------------------|--0--------L-----------|
-------------2----------|-----------------------|
------------------------|--------------------2--|
--0---------------------|--0--------L--2--3-----|


  Q    Q    Q    Q       Q    E  E  Q    E  E   
----------------------|--0-------0--2----0--2--|
----------------------|--0----4-----1----------|
----------------------|--0---------------------|
------------0---------|-------------2----------|
--1--------------4----|------------------------|
-------2--------------|--0---------------------|


  Q    E  E  Q    E  E     H        Q    Q     
--3----2--3--5----3--5--|--7------------------|
--2----------5----------|--0------------------|
--3---------------------|--0------------------|
------------------------|-----------0---------|
------------------------|----------------3----|
--0----------0----------|--3------------------|


  Q    Q    Q    Q         Q    E  E  Q    Q     
-----------------------||------------------0----|
--5----3----1----0-----||--0-------0--2---------|
--4-------------------*||-------3---------------|
----------------------*||--0----------2---------|
-----------------------||--2----------2---------|
-----------------------||-----------------------|


  E  E  Q    Q    Q       Q    E  Q    E  Q     
-----------------------|-----------------------|
--3--2--0----2---------|--0---------------0----|
--1---------------3----|-------0-------0-------|
-------------2---------|--0-------0------------|
--2----------2---------|-----------------------|
-----------------------|--3---------------3----|


  E  E  Q    Q    Q       Q.     Q.     Q       E  Q.     Q    Q     
-----------------------|---------------------|----------------------|
--L----------0----3----|--2------------------|----------------------|
--------0----0---------|---------2-----------|----------------------|
-----0------------0----|----------------2----|--L-------------------|
------------------2----|--0-------------0----|--L---------0----2----|
--L----------3---------|---------0-----------|-----0----------------|


  Q    E  Q    E  Q       Q    Q    Q    Q       Q.     Q.     Q     
-----------------------|-----------------0----|---------------------|
--1---------------1----|------------1----1----|--4-------------L----|
-------0-------0-------|-------0----0---------|--4-------------L----|
----------2------------|----------------------|---------------------|
--3---------------3----|------------3----3----|--2------2-----------|
----------3------------|--3-------------------|----------------2----|


  Q.     Q.     Q       E  E  E  E  E  E  E  E     E  E  E  E  Q     
---------------------|--------------------------|-------------------|
---------------------|--------------------------|-------------------|
---------------------|--------0--2--0-----------|--0--2--0----------|
----------------1----|--2--4-----------4--2--4--|-----------4--2----|
--2------2-----------|--------------------------|-------------------|
---------------------|--0-----------------------|--0----------------|


  E  E  E  E  E  E  E  E     E  E  E  E  Q     
--------------------------|-------------------|
--------0--2--0-----------|--0--2--0----------|
--0--2-----------2--0--2--|-----------2--0----|
--------------------------|-------------------|
--------------------------|-------------------|
--0-----------------------|--0----------------|


  E  E  E  E  E  E  E  E     E  E  E  E  E  E  E  E   
-----------0--------------|-----0-----------------0--|
--0--2--3-----3--2--0--2--|--3-----3--2--0--2--3-----|
--------------------------|--------------------------|
--------------------------|--------------------------|
--------------------------|--------------------------|
--0-----------------------|--0-----------------------|


  Q    Q    Q    Q       Q    Q    Q    Q     
--2----0--------------|--L-------------------|
-------1--------------|--L-------------------|
-------0--------------|--L-------------------|
----------------------|----------------------|
--3---------3---------|--3---------3---------|
-------3---------3----|-------3---------3----|


   Q     Q    Q    Q       Q    Q    Q    Q       W                 
------------------------|----------------------|-------------------|
--12----10--------------|--L-------------------|-------------------|
--------10--------------|--L-------------------|-------------------|
--------10--------------|--L-------------------|-------------------|
---8----------8---------|--8---------8---------|-------------------|
---------8---------8----|-------8---------8----|--0----------------|


  W                  
-------------------||
-------------------||
-------------------||
-------------------||
-------------------||
--L----------------||




Duration Legend
---------------
W - whole
H - half
Q - quarter
E - 8th
. - note dotted


Tablature Legend
----------------
L - tied note
^ - brush up
v - brush down
Login or Register to remove this ad.

2 comments on The Fierce Battle

I love your tabs bro keep em

5

I love your tabs bro keep em coming

Ab. So. Lute. Ly. Stellar.

5

Ab. So. Lute. Ly. Stellar.