Ads

The Fierce Battle (Final Fantasy V) Guitar Tab

Submitted: Aug 19, 2011 by BacardiBreezer

5
Average: 5 (1 vote)
Download | Listen
Game: Final Fantasy V
Composer(s): Nobuo Uematsu
Style: 2 or more instruments, Alternate picking, Transcription
Series: Final Fantasy

AutoScroll: Slow | Medium | Fast
The Fierce Battle (Boss Theme)
Final Fantasy 5
Composer: Nobuo Uematsu
Tabbed by Bacardibreezer
8/18/11

Guitar 1 - Strings

e|--9--8~-------12--11~-----|------9--8~--------12--11~-----|
B|--------------------------|-------------------------------|
G|--------------------------|-------------------------------|
D|--------------------------|-------------------------------|
A|--------------------------|-------------------------------|
E|--------------------------|-------------------------------| x2

e|---------------------------|------------------|------------------|--------------------|
B|---------------------------|------------------|------------------|-4-4-4-4--3-3-3-3---|
G|---------------------------|-8-8-8-8--7-7-7-7-|-6-6-6-6--7-7-7-7-|--------------------|
D|--11-11-11-11--12-12-12-12-|------------------|------------------|--------------------|
A|---------------------------|------------------|------------------|--------------------|
E|---------------------------|------------------|------------------|--------------------|

e|--------------------------------------|--------------------|
B|--2-2-2-2--3-3-3-3--4-4-4-4--3-3-3-3--|-------------5-4----|
G|--------------------------------------|-------6-5----------|
D|--------------------------------------|-4-6-7-----6--------|
A|--------------------------------------|--------------------|
E|--------------------------------------|--------------------|

e|--------------------------------------|-------------5------|
B|--2-2-2-2--3-3-3-3--4-4-4-4--3-3-3-3--|------5--3----------|
G|--------------------------------------|--6-----------------|
D|--------------------------------------|--------------------|
A|--------------------------------------|--------------------|
E|--------------------------------------|--------------------|

e|--------------------------------------|--------------------|
B|--2-2-2-2--3-3-3-3--4-4-4-4--3-3-3-3--|-------------5-4----|
G|--------------------------------------|-------6-5----------|
D|--------------------------------------|-4-6-7-----6--------|
A|--------------------------------------|--------------------|
E|--------------------------------------|--------------------|

e|--------------------------------------|-------------5------|
B|--2-2-2-2--3-3-3-3--4-4-4-4--3-3-3-3--|------5--3----------|
G|--------------------------------------|--6-----------------|
D|--------------------------------------|--------------------|
A|--------------------------------------|--------------------|
E|--------------------------------------|--------------------|

e|--------------------------------------|--9---------9~--------9--12--11-----------|
B|--------------------------------------|----10---10-------10-------------12-------|
G|--------------------------------------|-------9-----------------------------11~--|
D|--6-6-6-6--7-7-7-7--8-8-8-8--7-7-7-7--|------------------------------------------|
A|--------------------------------------|------------------------------------------|
E|--------------------------------------|------------------------------------------|

e|--------------------------|
B|--------------------------|
G|---------2--------1~------|
D|--4--6--------------------|
A|--------------------------|
E|--------------------------|

e|---------------------------------------|--------9-11-9----------9-11-9---------|
B|---------------------------------------|--10-12--------12-10-12--------12-10~--|
G|---------------------------------------|---------------------------------------|
D|----------9---------------9------------|---------------------------------------|
A|--9-11-12---12-11-9-11-12---12-11-9~---|---------------------------------------|
E|---------------------------------------|---------------------------------------|

e|--------12-14-12-----------12-14-12-----------12-14-------------|-----15---15~-----|
B|--14-16----------16--14-16----------16--14-16-------15~---15~---|------------------|
G|----------------------------------------------------------------|------------------|
D|----------------------------------------------------------------|------------------|
A|----------------------------------------------------------------|------------------|
E|----------------------------------------------------------------|------------------|

Guitar 2 - Horn

e|---------------------------------------|--------------------------------------|
B|---------------------------------------|--------------------------------------|
G|--------------1-2------------------1---|--------------1-2----------------1-2--|
D|----------3-4------------------3-4-----|----------2-4----------------3-4------|
A|------0-4----------------0-3-4---------|------0-4----------------0-4----------|
E|--2-4----------------2-4---------------|--2-4----------------2-4--------------| x2

Rest 4 measures

e|----------------------------------------|-----------|
B|--7---6-7-9---7-9-10---9-7-9-7-6----7~--|----L------|
G|----------------------------------------|-----------|
D|----------------------------------------|-----------|
A|----------------------------------------|-----------|
E|----------------------------------------|-----------|

e|---------------------------------------9~--|----L----|
B|--7---6-7-9---7-9-10---9-10-12---10-12-----|---------|
G|-------------------------------------------|---------|
D|-------------------------------------------|---------|
A|-------------------------------------------|---------|
E|-------------------------------------------|---------|

e|----------------------------------------|-----------|
B|--7---6-7-9---7-9-10---9-7-9-7-6----7~--|----L------|
G|----------------------------------------|-----------|
D|----------------------------------------|-----------|
A|----------------------------------------|-----------|
E|----------------------------------------|-----------|

e|---------------------------------------9~--|----L----|
B|--7---6-7-9---7-9-10---9-10-12---10-12-----|---------|
G|-------------------------------------------|---------|
D|-------------------------------------------|---------|
A|-------------------------------------------|---------|
E|-------------------------------------------|---------|

e|-----------11--14---12-11----11---------|----------------7~------|
B|--14-13-14----------------14----13-14~--|--L---------------------|
G|----------------------------------------|------------------------|
D|----------------------------------------|------------------------|
A|----------------------------------------|------------------------|
E|----------------------------------------|------------------------|

e|---------------------------14-13~----|
B|--15----------15--------15-----------|
G|-----14----14--------14--------------|
D|--------16---------------------------|
A|-------------------------------------|
E|-------------------------------------|

e|-------------------------------------------------16---14~--|--21---19~--|
B|-----------------------------------------------------------|------------|
G|-----------------------------------------------------------|------------|
D|-----------------------------------------------------------|------------|
A|-----------------------------------------------------------|------------|
E|-----------------------------------------------------------|------------|

Login or Register to remove this ad.