Ads

Fate in Haze (Final Fantasy V) Guitar Tab

Submitted: Jul 29, 2012 by auriplane (Last updated: Jul 29, 2012)

5
Average: 5 (3 votes)
Download | Listen
Game: Final Fantasy V
Composer(s): Nobuo Uematsu
Style: Alternate picking, Transcription
Series: Final Fantasy

This song is also called ダンジョン

AutoScroll: Slow | Medium | Fast
                   Final Fantasy 5 - Fate in Haze  GUITAR TAB
                            Composed by Nobuo Uematsu

                     Tabbed by auriplane ([email protected])


I decided to turn the harp part from this song into an etude of sorts for wide
arpeggio patterns for 7-string guitar.  So, be warned :-D  I thought I'd share 
it, but as always with big stretches, remember to stop immediately if anything 
hurts!  It's not supposed to hurt.  In fact, the purpose of this tab is to 
teach myself to stay relaxed while doing wide stretches.

Anyway, if you want to play the melody, please check out Musenji's tab
instead, and play it one fret higher, since he wrote it in E phrygian instead
of F phrygian.  I also made a bass tab for this, which isn't nearly as silly.

Seven-string guitar, B-standard tuning.

        Intro

e |------------------|------------------|------------------|------------------|
B |------------------|------------------|------------------|------------------|
G |------------------|------------------|---------------8--|11----------------|
D |------------6--10-|11-8--------------|------------10----|---11-8-----------| x2
A |---------8--------|------9-----------|------6--11-------|---------9--------|
E |------8-----------|---------9--------|---8--------------|------------9-----|
B |6--9--------------|------------11-7--|9-----------------|---------------11-|

        Part A

e |------------------|------------------|------------------|------------------| \
B |------------------|------------------|------------------|------------------|  \
G |------------------|------------------|---------------8--|------------------|   |
D |------------6--10-|------------6--11-|------------6-----|------------6--10-|   |
A |---------8--------|---------8--------|------6--8--------|---------8--------|   |
E |------8-----------|------9-----------|------------------|------8-----------|   |
B |6--9--------------|6--9--------------|6--9--------------|6--9--------------|   |
                                                                                  |
e |------------------|------------------|------------------|------------------|   |
B |------------------|------------------|------------------|------------------|   |
G |------------------|------------------|---------------10-|------------------|   |
D |------------8--11-|---------------13-|------------8-----|------------8--11-|   |
A |---------9--------|---------9--13----|------8--9--------|---------9--------|   |
E |------9-----------|------11----------|------------------|------9-----------|   |
B |7--11-------------|7--11-------------|7--11-------------|7--11-------------|   |
                                                                                  | x2
e |------------------|------------------|------------------|------------------|   |
B |------------------|------------------|------------------|------------------|   |
G |------------------|------------------|---------------8--|------------------|   |
D |------------6--10-|------------6--11-|------------6-----|------------6--10-|   |
A |---------8--------|---------8--------|------6--8--------|---------8--------|   |
E |------8-----------|------9-----------|------------------|------8-----------|   |
B |6--9--------------|6--9--------------|6--9--------------|6--9--------------|   |
                                                                                  |
e |------------------|------------------|------------------|------------------|   |
B |------------------|------------------|------------------|------------------|   |
G |------------------|---------------5--|---------------6--|------------------|   |
D |------------4--8--|------------4-----|------------4-----|------------4--8--|   |
A |---------6--------|---------6--------|------4--6--------|---------6--------|   |
E |------6-----------|------8-----------|------------------|------6-----------|  /
B |4--7--------------|4--7--------------|4--7--------------|4--7--------------| / 
                                                                                  
        Part B

e |------------------|------------------|------------------|------------------|
B |------------------|------------------|------------------|------------------|
G |------------------|------------------|------------5--8--|------------------|
D |---------------10-|---------------11-|---------6--------|---------------10-|
A |---------6--11----|---------6--11----|------6-----------|---------6--11----|
E |------8-----------|------9-----------|------------------|------8-----------|
B |4--9--------------|4--9--------------|4--9--------------|4--9--------------|

e |------------------|------------------|------------------|------------------|
B |------------------|------------------|------------------|------------------|
G |------------------|------------------|---------------10-|------------------|
D |------------8--11-|---------------13-|------------8-----|------------8--11-|
A |---------9--------|---------9--13----|------8--9--------|---------9--------|
E |------9-----------|------11----------|------------------|------9-----------|
B |7--11-------------|7--11-------------|7--11-------------|7--11-------------|

e |------------------|------------------|------------------|------------------|
B |------------------|------------------|------------------|------------------|
G |------------------|------------------|------------5--8--|------------------|
D |---------------10-|---------------11-|---------6--------|---------------10-|
A |---------6--11----|---------6--11----|------6-----------|---------6--11----|
E |------8-----------|------9-----------|------------------|------8-----------|
B |4--9--------------|4--9--------------|4--9--------------|4--9--------------|

        Part C

e |------------------|------------------|------------------|------------------|
B |------------------|------------------|------------------|------------------|
G |------------------|------------------|------------------|------------------|
D |------------4--8--|------------4--8--|------------6--10-|------------6--10-|
A |---------6--------|---------6--------|---------8--------|---------8--------|
E |------6-----------|------6-----------|------8-----------|------8-----------|
B |4--7--------------|4--7--------------|6--9--------------|6--9--------------|

e |------------------|------------------|------------------|------------------|
B |------------------|------------------|------------------|------------------|
G |------------------|------------------|------------------|------------------|
D |------------8--11-|------------8--11-|------------10-13-|------------10-13-|
A |---------9--------|---------9--------|---------11-------|---------11-------|
E |------9-----------|------9-----------|------11----------|------11----------|
B |7--11-------------|7--11-------------|9--13-------------|9--13-------------|

e |------------------|------------------|------------------|------------------|
B |------------------|------------------|------------------|------------------|
G |------------------|------------------|------------------|------------------|
D |------------8--11-|------------8--11-|---------------13-|---------------13-|
A |---------10-------|---------10-------|---------9--13----|---------9--13----|
E |------9-----------|------9-----------|------11----------|------11----------|
B |8--11-------------|8--11-------------|7--11-------------|7--11-------------|

e |------------------|------------------|------------------|------------------|
B |------------------|------------------|------------------|------------------|
G |------------------|------------------|------------------|------------------|
D |---------------12-|------------8--10-|---------------12-|------------8--10-|
A |---------8--13----|---------8--------|---------8--13----|---------8--------|
E |------10----------|------8-----------|------10----------|------8-----------|
B |6--11-------------|6--11-------------|6--11-------------|6--11-------------|

Login or Register to remove this ad.

1 comment on Fate in Haze

YESSSSS!!!! This tab is like

5

YESSSSS!!!!
This tab is like a beckoning call for me to buy a 7-string. My favorite FFV song hands down :-)