Fate in Haze (Final Fantasy V) Bass Tab

Submitted: Mar 11, 2010 by auriplane

5
Average: 5 (1 vote)
Download | Listen
Game: Final Fantasy V
Composer(s): Nobuo Uematsu
Style: Transcription
Series: Final Fantasy

This song is also called ダンジョン

AutoScroll: Slow | Medium | Fast
             Final Fantasy V (SNES) - Fate in Haze BASS TAB
                          Song by Nobuo Uematsu

                 Tabbed by auriplane ([email protected])


Four-string bass, standard tuning.  Rest for four measures at the beginning.


        Part A

G |------------|10------8-10|11----------|------------|  \
D |------------|------------|---------11-|------------|   \
A |8---------8-|------------|------------|9-----------|    |
E |------------|------------|------------|------------|    |
                                                           | x2
G |------------|--------109-|8-----------|------------|    |
D |------------|10----------|---------8--|------------|    |
A |8---------8-|------------|------------|----------7-|   /
E |------------|------------|------------|11------11--|  /

        Part B

G |------------|------------|------------|------------|
D |------------|------------|------------|------------|
A |11------9-10|11------1110|9-----------|9-----------|
E |------------|------------|---------9--|------------|

G |------------|------------|
D |------------|------------|
A |11------9-10|11------9-8-|
E |------------|------------|

        Part C

G |------------|------------|------------|------------|
D |------------|------------|------------|------------|
A |------------|------------|------------|8-----------|
E |11----------|8-----------|9-----------|------------|

G |------------|------------|------------|------------|
D |------------|--------109-|8-----------|------------|
A |------------|------------|------------|------------|
E |11----------|8-----------|------------|6-----------|
Login or Register to remove this ad.