Battle Theme (Final Fantasy V) Guitar Tab

Submitted: Feb 10, 2012 by zen03y

4.666665
Average: 4.7 (3 votes)
Download | Listen
Game: Final Fantasy V
Composer(s): Nobuo Uematsu
Style: Arrangement, Fingerstyle
Series: Final Fantasy

AutoScroll: Slow | Medium | Fast
Title: Battle Theme
Artist: Nobuo Uematsu
Album: Final Fantasy V OST
Tabber: xen05z/zen03y (le 7 fevrier 2012)
Tempo = 165
Nylon Guitar

Legend
L - tied note
x - dead note
h - hammer on/pull off
b - bend
s - slide
~ - vibrato
g - ghost note
> - accentuated note
t - trill
M - palm mute
. - staccato
P - popping (bass)
S - slapping (bass)
+ - tapping
W - wide vibrato
< - fade in
w - whammy bar
= - tremolo picking
v - brush up
^ - brush down
V - pick stroke up
n - pick stroke down

                                                             
E |----------------------------|----------------------------|
B |----------------------------|----------------------------|
G |----------------------------|----------------------------|
D |----------------------------|----------------------------|
A |--0--0--0--0--0--0----------|--0--0--0--0--0--0----------|
E |--------------------3--3----|--------------------3--3----|

                                                          
----------------------------|--------------1-------------|
----------------------------|--1-----------1-------------|
--------------0-------------|--0-----------0-------------|
--0-----------0-------------|--0-----------0-------------|
--0--0--0--0--0--0----------|--0--0--0--0--0--0----------|
--------------------3--3----|--------------------3--3----|

                             
-----------0----------------|
-----0--1-----3--1--0-------|
--2--------------------2----|
----------------------------|
--0-----0-----0-------------|
----------------------------|

                                                     
----------------------------------------------------|
----------------------------------------------------|
--0-------------------------------------------------|
--------------------0-----------------0--2--3-------|
----------------------------------------------------|
--3-----3-----3-----3-----3-----3-----3-------------|

                                                     
----------------------------------------------------|
----------------------------------------------------|
----------------------------------------------------|
--2-----------------0--2--3-----------0-------------|
--0-----0-----0-----0-----------0-----------0-------|
----------------------------------------------------|

                                                          
----------------------------|----------------------------|
--------1-----0-------------|-----0--1--0--3--1--0-------|
--------------------0-------|--2--0--2--0--4--2--0--2----|
--2-----------------2-------|--2-------------------------|
-----0-----0-----0----------|--0-----0-----0-------------|
-----------------------3----|----------------------------|

                             
-----------3-----------1----|
-----------3-----3-----3----|
--0--------------4----------|
--0-------------------------|
----------------------------|
--3--3--3--3-----3-----3----|

                                                     
--0-----------------1h-0----------------------------|
--1-----------------------3-----------1-------------|
--------------------------------------------0-------|
----------------------------------------------------|
--3-----3-----3-----3-----3-------------------------|
--------------------------------------3-------------|

                             
--------0-----2-----4-------|
--0-----0-----0-----0-------|
--1-----1-----1-----1-------|
-----2-----2-----2-----2----|
--2-------------------------|
--0-------------------------|

                                                     
----------------------------------------------------|
--------------------------------------0>-1>-0>------|
--2-----2-----------2-----------2-------------------|
--3-----3-----------3-----------3-------------------|
----------------------------------------------------|
--1-----1-----------1-----------1-------------------|

                             
----------------------------|
--0--------0-----------0>---|
--0-----2-----0-----0>------|
-----0-----0-----0--0-------|
----------------------------|
--3--3--3--3--3--3--3--3----|

                                                                      
----------------------------------------------------|-----------0----|
--------------------------------------0>-1>-0>------|--0--3--2--0----|
--2>----2>----------2>----------2>------------------|--0-----0-------|
--3>----3>----------3>----------3>------------------|-----------2----|
----------------------------------------------------|--2-------------|
--1>----1>----------1>----------1>------------------|--3--3--3--0----|

                                                          
----------------------------|----------------------------|
--------------------0--1>---|--0>----------------0>------|
--2--------2>----2>---------|--0-----2>----0>------------|
--3--------3>----3>---------|--------0-------------------|
----------------------------|--------------3-----2-------|
--1--1--1--1>-1--1>-1--1----|--3--3--3--3--3--3--3--3----|

                                                       ^  ^  ^  ^     
--------------------------------------------0>------|----------------|
--1-----------------1-----------------1>-3>---------|--3>-1>-0>-3>---|
--2-----------------2-----------------2>------------|--0>-0>-0>-0>---|
--2-----------------2-----------------2-------------|--0>-------0>---|
--0-----0-----0-----0-----0-----0-----0-------------|--2>-3>-2>------|
----------------------------------------------------|-----------3>---|

  ^                                                       
--0--------0--------0-------|--0-----------3-----1-------|
--1--------------0--1--3----|--0-----0--1--3-----1-------|
--2-----2-------------------|-----0-----0----------------|
--3--3--------3-------------|--3-------------------------|
--3-------------------------|----------------------------|
--1--1--1--1--1--1--1--1----|--3-----------3-----3-------|

  ^                                                       
--0-------------------------|--0-------------------------|
--0-------------------------|--0--3--1--0--1--0----------|
--1-------------------------|--1--------------------1----|
--2-------------------------|--------------------3-------|
--2-------------------------|----------------------------|
--0--0--0--0--0--0--0--0----|--0--------------0----------|

                                                       >
----------------------------------------------------|-------||
----------------------------------------------------|-------||
--1L-1L-1L------------------------------------------|--1----||
--2--0--2L------------------------------------------|--2----||
----------------------------------------------------|-------||
--0L-0L-0L------------------------------------------|--0----||

Login or Register to remove this ad.