Battle Theme (Final Fantasy V) Guitar Tab

Submitted: Aug 19, 2010 by Daugreano (Last updated: Aug 20, 2010)

0
Download | Listen
Game: Final Fantasy V
Composer(s): Nobuo Uematsu
Style: Transcription
Series: Final Fantasy

AutoScroll: Slow | Medium | Fast
Song: Battle Theme
Game: Final Fantasy V
Composer: Nobuo Uematsu
Tabbed by: Daugreano

Guitar: 

   E   E   E   E   E   E   E   E     E   E   E   E   E   E   E   E     
E|---------------------------------|---------------------------------|
B|---------------------------------|---------------------------------|
G|---------------------------------|---------------------------------|
D|-2---2---2---2---2---2-----------|-2---2---2---2---2---2-----------|
A|-0---0---0---0---0---0---5---5---|-0---0---0---0---0---0---5---5---|
E|-------------------------3---3---|-------------------------3---3---|

   E   S  S  S  S  S  S  S  S  S  S  S  S  S  S
E|-----------------------------------------------|
B|-----------------5-----3-----------------------|
G|=2---4-----5-----------------5-----4-----2-----|
D|-----------------------------------------------|
A|-----------------------------------------------|
E|-----------------------------------------------|

   Q.    Q    Q    E     E   E   E   E   E   E   E   E     E   E   E   E   E   E   E   E
E|---------------------|---------------------------------|---------------------------------|
B|---------------------|---------------------------------|---------------------------------|
G|---------------------|---------------------------------|---------------------------------|
D|-5-----3----5----2---|-2---2---2---2---2---2-----------|-2---2---2---2---2---2-----------|
A|---------------------|-0---0---0---0---0---0---5---5---|-0---0---0---0---0---0---5---5---|
E|---------------------|-------------------------3---3---|-------------------------3---3---|

   E   S  S  S  S  S  S  S  S  S  S  S  S  S  S    Q.    Q    Q    E     W        W 
E|-----------------------------------------------|-------3----1----3---|--------|--------|
B|-----------------5-----3-----------------------|---------------------|-5------|--------|
G|-2---4-----5-----------------5-----4-----2-----|---------------------|--------|-1------|
D|-----------------------------------------------|-5-------------------|--------|--------|
A|-----------------------------------------------|---------------------|--------|--------|
E|-----------------------------------------------|---------------------|--------|--------|

   S  S  S  E.   S  E.   S  E.   S  S    Q.    E   Q    Q      S  S  S  E.   S  E.   S  E.   S  S    
E|-------------------------------------|---------------------|-------------------------------------|
B|-----------------------5-------------|-----------3---------|-----------------------5-------------|
G|-2-----2-------5---------------5-----|-4-----5--------4----|-2-----2-------5---------------2-----|
D|-------------------------------------|---------------------|-------------------------------------|
A|-------------------------------------|---------------------|-------------------------------------|
E|-------------------------------------|---------------------|-------------------------------------|

   Q    Q    Q    Q      H.     S  S  E     Q    Q    Q    Q      H.     S  S  E
E|---------------------|------------------|---------------------|------------------|
B|------3----2----5----|------------------|---------------------|-----------3H-5---|
G|-4-------------------|-2------2H-4H-5---|-4----2---------4----|-5------5---------|
D|---------------------|------------------|-----------2---------|------------------|
A|---------------------|------------------|---------------------|------------------|
E|---------------------|------------------|---------------------|------------------|

   Q    Q    Q    Q      H     E   E   E   E     H     Q    Q      W        W
E|---------------------|-----------------------|-------3----1----|--------|--------|
B|-3--------------3----|-5-----L-----------3---|-5---------------|-5------|-L------|
G|------2----4---------|-----------2---2-------|-----------------|--------|--------|
D|---------------------|-----------------------|-----------------|--------|--------|
A|---------------------|-----------------------|-----------------|--------|--------|
E|---------------------|-----------------------|-----------------|--------|--------|

   E   S  S  S  S  S  S  S  S  S  S  S  S  S  S    H.    Q    Q    E     E   E   E   E   E   E   E   E
E|-----------------------------------------------|---------------------|---------------------------------|
B|-----------------5-----3-----------------------|---------------------|---------------------------------|
G|-2---4-----5-----------------5-----4-----2-----|---------------------|---------------------------------|
D|-----------------------------------------------|-5-----3----5----2---|-2---2---2---2---2---2-----------|
A|-----------------------------------------------|---------------------|-0---0---0---0---0---0---5---5---|
E|-----------------------------------------------|---------------------|-------------------------3---3---|

   E   E   E   E   E   E   E   E     E   S  S  S  S  S  S  S  S  S  S  S  S  S  S
E|---------------------------------|-----------------------------------------------|
B|---------------------------------|-----------------5-----3-----------------------|
G|---------------------------------|-2---4-----5-----------------5-----4-----2-----|
D|-2---2---2---2---2---2-----------|-----------------------------------------------|
A|-0---0---0---0---0---0---5---5---|-----------------------------------------------|
E|-------------------------3---3---|-----------------------------------------------|

   H     Q    Q    E     W        W        S  S  S  E.   S  E.   S  E.   S  S    Q.    E   Q    Q
E|-------3----1----3---|--------|--------|-------------------------------------|---------------------|
B|---------------------|-5------|--------|-----------------------5-------------|-----------3---------|
G|---------------------|--------|-1------|-2-----2-------2---------------2-----|-4-----2--------4----|
D|-5-------------------|--------|--------|-------------------------------------|---------------------|
A|---------------------|--------|--------|-------------------------------------|---------------------|
E|---------------------|--------|--------|-------------------------------------|---------------------|

   S  S  S  E.   S  E.   S  E.   S  S    Q    Q    Q    Q      H.     S  S  E     Q    Q    Q    Q
E|-------------------------------------|---------------------|------------------|---------------------|
B|-----------------------5-------------|------3----2----5----|------------------|---------------------|
G|-2-----2-------5---------------5-----|-4-------------------|-2------2H-4H-5---|-4----2---------4----|
D|-------------------------------------|---------------------|------------------|-----------5---------|
A|-------------------------------------|---------------------|------------------|---------------------|
E|-------------------------------------|---------------------|------------------|---------------------|

   H.     S  S  E     Q    Q    Q    Q      H     E   E   E   E     H     Q    Q
E|------------------|---------------------|-----------------------|-------3----1----|
B|-----------3H-5---|-3--------------3----|-5-----L-----------3---|-5-----5----3----|
G|-5------5---------|------5----4---------|-----------5---5-------|-5---------------|
D|------------------|---------------------|-----------------------|-----------------|
A|------------------|---------------------|-----------------------|-----------------|
E|------------------|---------------------|-----------------------|-----------------|

   W
E|--------|
B|-5------|
G|-4------|
D|--------|
A|--------|
E|--------|


Login or Register to remove this ad.

3 comments on Battle Theme

Hi! I fixed the stray

Hi! I fixed the stray newline in your tab. Also, I think the middle part goes like this:

   Q    Q    Q    Q      H.     S  S  E     Q    Q    Q    Q      H.     S  S  E
E|---------------------|------------------|---------------------|------------------|
B|------3----2----5----|------------------|---------------------|-----------3H-5---|
G|-4-------------------|-2------2H-4H-5---|-4----2---------4----|-5------5---------|
D|---------------------|------------------|-----------2---------|------------------|
A|---------------------|------------------|---------------------|------------------|
E|---------------------|------------------|---------------------|------------------|

   Q    Q    Q    Q      H     E   E   E   E     H     Q    Q      W        W
E|---------------------|-----------------------|-------3----1----|--------|--------|
B|-3--------------3----|-5-----L-----------3---|-5---------------|-5------|-L------|
G|------2----4---------|-----------2---2-------|-----------------|--------|--------|
D|---------------------|-----------------------|-----------------|--------|--------|
A|---------------------|-----------------------|-----------------|--------|--------|
E|---------------------|-----------------------|-----------------|--------|--------|

Uh...

I can't spot the difference...

Because I'm a tard and pasted

Because I'm a tard and pasted yours. xD

   Q    Q    Q    Q      H.     S  S  E     Q    Q    Q    Q      H.     S  S  E
E|---------------------|------------------|---------------------|------------------|
B|------3----2----5----|------------------|---------------------|-----------3H-5---|
G|-4-------------------|-2------2H-4H-5---|-4----2---------4----|-5------5---------|
D|---------------------|------------------|-----------5---------|------------------|
A|---------------------|------------------|---------------------|------------------|
E|---------------------|------------------|---------------------|------------------|

   Q    Q    Q    Q      H     E   E   E   E     H     Q    Q      W        W
E|---------------------|-----------------------|-------3----1----|--------|--------|
B|-3--------------3----|-5-----L---1---1---3---|-5---------------|-5------|-L------|
G|------5----4---------|-----------------------|-----------------|--------|--------|
D|---------------------|-----------------------|-----------------|--------|--------|
A|---------------------|-----------------------|-----------------|--------|--------|
E|---------------------|-----------------------|-----------------|--------|--------|